  0
SECTION
  2
HEADER
  9
$ACADVER
  1
AC1006
  0
ENDSEC
  0
SECTION
  2
TABLES
  0
TABLE
  2
LTYPE
 70
16
  0
LTYPE
  2
CONTINUOUS
 70
64
  3
GS Solid
 72
65
 73
0
 40
0.55156865015033
  0
LTYPE
  2
GSDASHED
 70
64
  3
GS Internal Dash
 72
65
 73
2
 40
827.90454387589
 49
552.12021880064
 49
-276.3358937254
  0
LTYPE
  2
GSDOTTED
 70
64
  3
GS Internal Dot
 72
65
 73
2
 40
276.3358937254
 49
0.55156865015033
 49
-276.3358937254
  0
LTYPE
  2
GSDASHDOT
 70
64
  3
GS Internal Dash-Dot
 72
65
 73
4
 40
1103.6888689511
 49
552.12021880064
 49
-276.3358937254
 49
0.55156865015033
 49
-276.3358937254
  0
LTYPE
  2
GSDASHDOTDOT
 70
64
  3
GS Internal Dash-Dot-Dot
 72
65
 73
6
 40
1103.6888689511
 49
276.3358937254
 49
-276.3358937254
 49
0.55156865015033
 49
-276.3358937254
 49
0.55156865015033
 49
-276.3358937254
  0
LTYPE
  2
GSCUSTOM0
 70
64
  3
GSCUSTOM0
 72
65
 73
2
 40
221.17902871035
 49
110.86529868025
 49
-110.86529868025
  0
LTYPE
  2
GSCUSTOM1
 70
64
  3
GSCUSTOM1
 72
65
 73
2
 40
441.80648877054
 49
221.17902871035
 49
-221.17902871035
  0
LTYPE
  2
GSCUSTOM2
 70
64
  3
GSCUSTOM2
 72
65
 73
2
 40
662.43394883074
 49
331.49275874045
 49
-331.49275874045
  0
LTYPE
  2
GSCUSTOM3
 70
64
  3
GSCUSTOM3
 72
65
 73
2
 40
883.06140889094
 49
441.80648877054
 49
-441.80648877054
  0
LTYPE
  2
GSCUSTOM4
 70
64
  3
GSCUSTOM4
 72
65
 73
2
 40
1103.6888689511
 49
552.12021880064
 49
-552.12021880064
  0
LTYPE
  2
GSCUSTOM5
 70
64
  3
GSCUSTOM5
 72
65
 73
4
 40
695.52806783977
 49
221.17902871035
 49
-221.17902871035
 49
33.64568765918
 49
-221.17902871035
  0
LTYPE
  2
GSCUSTOM6
 70
64
  3
GSCUSTOM6
 72
65
 73
6
 40
1158.8457339662
 49
386.64962375549
 49
-221.17902871035
 49
55.7084336652
 49
-221.17902871035
 49
55.7084336652
 49
-221.17902871035
  0
LTYPE
  2
GSCUSTOM7
 70
64
  3
GSCUSTOM7
 72
65
 73
8
 40
1214.0025989812
 49
386.64962375549
 49
-166.0221636953
 49
55.7084336652
 49
-166.0221636953
 49
55.7084336652
 49
-166.0221636953
 49
55.7084336652
 49
-166.0221636953
  0
LTYPE
  2
GSCUSTOM8
 70
64
  3
GSCUSTOM8
 72
65
 73
6
 40
971.31239291502
 49
221.17902871035
 49
-166.0221636953
 49
221.17902871035
 49
-166.0221636953
 49
33.64568765918
 49
-166.0221636953
  0
LTYPE
  2
GSCUSTOM9
 70
64
  3
GSCUSTOM9
 72
65
 73
8
 40
1169.8771069692
 49
221.17902871035
 49
-166.0221636953
 49
221.17902871035
 49
-166.0221636953
 49
33.64568765918
 49
-166.0221636953
 49
33.64568765918
 49
-166.0221636953
  0
LTYPE
  2
GSCUSTOM10
 70
64
  3
GSCUSTOM10
 72
65
 73
10
 40
2537.7673593424
 49
552.12021880064
 49
-221.17902871035
 49
552.12021880064
 49
-221.17902871035
 49
110.86529868025
 49
-221.17902871035
 49
110.86529868025
 49
-221.17902871035
 49
110.86529868025
 49
-221.17902871035
  0
ENDTAB
  0
ENDSEC
  0
SECTION
  2
ENTITIES
  0
POLYLINE
  8
GSLAYER
 70
129
 66
1
  0
VERTEX
  8
GSLAYER
 10
3456.4482519102
 20
3989.7597026095
  0
VERTEX
  8
GSLAYER
 10
3445.2651076638
 20
3059.9491090949
  0
VERTEX
  8
GSLAYER
 10
3890.9932854828
 20
3061.5467217985
  0
VERTEX
  8
GSLAYER
 10
3890.9932854828
 20
2920.9568038788
  0
VERTEX
  8
GSLAYER
 10
3959.6897429961
 20
2900.1878387315
  0
VERTEX
  8
GSLAYER
 10
4232.8779810141
 20
3599.942202923
  0
VERTEX
  8
GSLAYER
 10
4210.5116925214
 20
3889.1101022806
  0
VERTEX
  8
GSLAYER
 10
4146.6080111137
 20
3890.7077149843
  0
VERTEX
  8
GSLAYER
 10
4149.8031951841
 20
3980.1740263877
  0
VERTEX
  8
GSLAYER
 10
3456.4482519102
 20
3989.7597026095
  0
SEQEND
  0
POLYLINE
  8
GSLAYER
 70
129
 66
1
  0
VERTEX
  8
GSLAYER
 10
6574.9479046075
 20
2708.4743142955
  0
VERTEX
  8
GSLAYER
 10
6325.7235471174
 20
2713.2671524064
  0
VERTEX
  8
GSLAYER
 10
6241.0511692521
 20
2291.4973986472
  0
VERTEX
  8
GSLAYER
 10
6573.3503125723
 20
2301.083074869
  0
VERTEX
  8
GSLAYER
 10
6574.9479046075
 20
2708.4743142955
  0
SEQEND
  0
POLYLINE
  8
GSLAYER
 70
128
 66
1
  0
VERTEX
  8
GSLAYER
 10
1469.0437601297
 20
2910.5723213051
  0
VERTEX
  8
GSLAYER
 10
1466.7579866036
 20
2910.4251974009
  0
VERTEX
  8
GSLAYER
 10
1464.4937431263
 20
2909.9838256881
  0
VERTEX
  8
GSLAYER
 10
1462.251029698
 20
2909.2482061669
  0
VERTEX
  8
GSLAYER
 10
1460.0298463186
 20
2908.2183388371
  0
VERTEX
  8
GSLAYER
 10
1457.9450199157
 20
2906.890635311
  0
VERTEX
  8
GSLAYER
 10
1456.1113774167
 20
2905.318921407
  0
VERTEX
  8
GSLAYER
 10
1454.5289188217
 20
2903.5031971253
  0
VERTEX
  8
GSLAYER
 10
1453.1976441306
 20
2901.4434624658
  0
VERTEX
  8
GSLAYER
 10
1452.6288920052
 20
2900.3436215718
  0
VERTEX
  8
GSLAYER
 10
1452.128318368
 20
2899.2258387383
  0
VERTEX
  8
GSLAYER
 10
1451.695923219
 20
2898.0901139653
  0
VERTEX
  8
GSLAYER
 10
1451.3317065583
 20
2896.9364472527
  0
VERTEX
  8
GSLAYER
 10
1451.0428450687
 20
2895.7684269884
  0
VERTEX
  8
GSLAYER
 10
1450.8365154333
 20
2894.5896415605
  0
VERTEX
  8
GSLAYER
 10
1450.712717652
 20
2893.4000909688
  0
VERTEX
  8
GSLAYER
 10
1450.671451725
 20
2892.1997752134
  0
VERTEX
  8
GSLAYER
 10
1450.8257504088
 20
2889.9139721156
  0
VERTEX
  8
GSLAYER
 10
1451.2886464604
 20
2887.6496993453
  0
VERTEX
  8
GSLAYER
 10
1452.0601398798
 20
2885.4069569025
  0
VERTEX
  8
GSLAYER
 10
1453.1402306669
 20
2883.1857447871
  0
VERTEX
  8
GSLAYER
 10
1454.5145654557
 20
2881.0793610848
  0
VERTEX
  8
GSLAYER
 10
1456.1113774167
 20
2879.2385180877
  0
VERTEX
  8
GSLAYER
 10
1457.9306665497
 20
2877.6632157958
  0
VERTEX
  8
GSLAYER
 10
1459.9724328549
 20
2876.3534542092
  0
VERTEX
  8
GSLAYER
 10
1461.0668770079
 20
2875.8080192471
  0
VERTEX
  8
GSLAYER
 10
1462.1684978439
 20
2875.3199984915
  0
VERTEX
  8
GSLAYER
 10
1463.2772953628
 20
2874.8893919425
  0
VERTEX
  8
GSLAYER
 10
1464.3932695647
 20
2874.5161996
  0
VERTEX
  8
GSLAYER
 10
1465.5235971326
 20
2874.2147750157
  0
VERTEX
  8
GSLAYER
 10
1466.6754547494
 20
2873.9994717412
  0
VERTEX
  8
GSLAYER
 10
1467.8488424151
 20
2873.8702897765
  0
VERTEX
  8
GSLAYER
 10
1469.0437601297
 20
2873.8272291216
  0
VERTEX
  8
GSLAYER
 10
1470.240472015
 20
2873.8702897765
  0
VERTEX
  8
GSLAYER
 10
1471.419242193
 20
2873.9994717412
  0
VERTEX
  8
GSLAYER
 10
1472.5800706635
 20
2874.2147750157
  0
VERTEX
  8
GSLAYER
 10
1473.7229574265
 20
2874.5161996
  0
VERTEX
  8
GSLAYER
 10
1474.8514908236
 20
2874.8893919425
  0
VERTEX
  8
GSLAYER
 10
1475.9692591963
 20
2875.3199984915
  0
VERTEX
  8
GSLAYER
 10
1477.0762625445
 20
2875.8080192471
  0
VERTEX
  8
GSLAYER
 10
1478.1725008683
 20
2876.3534542092
  0
VERTEX
  8
GSLAYER
 10
1480.2106788319
 20
2877.6632157958
  0
VERTEX
  8
GSLAYER
 10
1482.0192029405
 20
2879.2385180877
  0
VERTEX
  8
GSLAYER
 10
1483.5980731941
 20
2881.0793610848
  0
VERTEX
  8
GSLAYER
 10
1484.9472895925
 20
2883.1857447871
  0
VERTEX
  8
GSLAYER
 10
1486.0273803796
 20
2885.4069569025
  0
VERTEX
  8
GSLAYER
 10
1486.7988737989
 20
2887.6496993453
  0
VERTEX
  8
GSLAYER
 10
1487.2617698505
 20
2889.9139721156
  0
VERTEX
  8
GSLAYER
 10
1487.4160685344
 20
2892.1997752134
  0
VERTEX
  8
GSLAYER
 10
1487.2617698505
 20
2894.5645228451
  0
VERTEX
  8
GSLAYER
 10
1486.7988737989
 20
2896.8933865978
  0
VERTEX
  8
GSLAYER
 10
1486.0273803796
 20
2899.1863664713
  0
VERTEX
  8
GSLAYER
 10
1484.9472895925
 20
2901.4434624658
  0
VERTEX
  8
GSLAYER
 10
1484.28882893
 20
2902.5056252867
  0
VERTEX
  8
GSLAYER
 10
1483.5765431451
 20
2903.5103739011
  0
VERTEX
  8
GSLAYER
 10
1482.810432238
 20
2904.457708309
  0
VERTEX
  8
GSLAYER
 10
1481.9904962086
 20
2905.3476285103
  0
VERTEX
  8
GSLAYER
 10
1481.1131467155
 20
2906.1729577293
  0
VERTEX
  8
GSLAYER
 10
1480.1747954171
 20
2906.9265191901
  0
VERTEX
  8
GSLAYER
 10
1479.1754423134
 20
2907.6083128927
  0
VERTEX
  8
GSLAYER
 10
1478.1150874045
 20
2908.2183388371
  0
VERTEX
  8
GSLAYER
 10
1475.8472555858
 20
2909.2482061669
  0
VERTEX
  8
GSLAYER
 10
1473.5794237671
 20
2909.9838256881
  0
VERTEX
  8
GSLAYER
 10
1471.3115919484
 20
2910.4251974009
  0
VERTEX
  8
GSLAYER
 10
1469.0437601297
 20
2910.5723213051
  0
SEQEND
  0
POLYLINE
  8
GSLAYER
 70
128
 66
1
  0
VERTEX
  8
GSLAYER
 10
1469.9049620862
 20
2891.3385621153
  0
VERTEX
  8
GSLAYER
 10
1485.6936646215
 20
2891.3385621153
  0
VERTEX
  8
GSLAYER
 10
1485.6936646215
 20
2891.2237337022
  0
VERTEX
  8
GSLAYER
 10
1485.4963058398
 20
2889.3649487656
  0
VERTEX
  8
GSLAYER
 10
1485.076469886
 20
2887.5205173806
  0
VERTEX
  8
GSLAYER
 10
1484.4341567601
 20
2885.6904395473
  0
VERTEX
  8
GSLAYER
 10
1483.5693664622
 20
2883.8747152655
  0
VERTEX
  8
GSLAYER
 10
1482.3206236253
 20
2881.9800464498
  0
VERTEX
  8
GSLAYER
 10
1480.8709336652
 20
2880.3150344602
  0
VERTEX
  8
GSLAYER
 10
1479.220296582
 20
2878.8796792968
  0
VERTEX
  8
GSLAYER
 10
1477.3687123756
 20
2877.6739809595
  0
VERTEX
  8
GSLAYER
 10
1475.5745416329
 20
2876.8091794736
  0
VERTEX
  8
GSLAYER
 10
1473.7516641584
 20
2876.166858038
  0
VERTEX
  8
GSLAYER
 10
1471.900079952
 20
2875.7470166527
  0
VERTEX
  8
GSLAYER
 10
1470.0197890137
 20
2875.5496553177
  0
VERTEX
  8
GSLAYER
 10
1469.9049620862
 20
2875.5496553177
  0
VERTEX
  8
GSLAYER
 10
1469.9049620862
 20
2891.3385621153
  0
SEQEND
  0
POLYLINE
  8
GSLAYER
 70
128
 66
1
  0
VERTEX
  8
GSLAYER
 10
1468.1825581732
 20
2891.3385621153
  0
VERTEX
  8
GSLAYER
 10
1468.1825581732
 20
2875.5496553177
  0
VERTEX
  8
GSLAYER
 10
1468.0677312457
 20
2875.5496553177
  0
VERTEX
  8
GSLAYER
 10
1466.2089703563
 20
2875.7470166527
  0
VERTEX
  8
GSLAYER
 10
1464.3645628329
 20
2876.166858038
  0
VERTEX
  8
GSLAYER
 10
1462.5345086754
 20
2876.8091794736
  0
VERTEX
  8
GSLAYER
 10
1460.7188078838
 20
2877.6739809595
  0
VERTEX
  8
GSLAYER
 10
1458.8241635796
 20
2878.9227399517
  0
VERTEX
  8
GSLAYER
 10
1457.1591731304
 20
2880.3724486668
  0
VERTEX
  8
GSLAYER
 10
1455.7238365363
 20
2882.0231071047
  0
VERTEX
  8
GSLAYER
 10
1454.5181537972
 20
2883.8747152655
  0
VERTEX
  8
GSLAYER
 10
1453.6533634993
 20
2885.6689092198
  0
VERTEX
  8
GSLAYER
 10
1453.0110503734
 20
2887.4918102773
  0
VERTEX
  8
GSLAYER
 10
1452.5912144196
 20
2889.3434184382
  0
VERTEX
  8
GSLAYER
 10
1452.3938556379
 20
2891.2237337022
  0
VERTEX
  8
GSLAYER
 10
1452.3938556379
 20
2891.3385621153
  0
VERTEX
  8
GSLAYER
 10
1468.1825581732
 20
2891.3385621153
  0
SEQEND
  0
POLYLINE
  8
GSLAYER
 70
128
 66
1
  0
VERTEX
  8
GSLAYER
 10
1469.9049620862
 20
2893.0609883114
  0
VERTEX
  8
GSLAYER
 10
1469.9049620862
 20
2908.849895109
  0
VERTEX
  8
GSLAYER
 10
1470.0197890137
 20
2908.849895109
  0
VERTEX
  8
GSLAYER
 10
1471.8785499031
 20
2908.6525337741
  0
VERTEX
  8
GSLAYER
 10
1473.7229574265
 20
2908.2326923888
  0
VERTEX
  8
GSLAYER
 10
1475.553011584
 20
2907.5903709531
  0
VERTEX
  8
GSLAYER
 10
1477.3687123756
 20
2906.7255694672
  0
VERTEX
  8
GSLAYER
 10
1479.2633566798
 20
2905.476810475
  0
VERTEX
  8
GSLAYER
 10
1480.928347129
 20
2904.02710176
  0
VERTEX
  8
GSLAYER
 10
1482.3636837231
 20
2902.376443322
  0
VERTEX
  8
GSLAYER
 10
1483.5693664622
 20
2900.5248351612
  0
VERTEX
  8
GSLAYER
 10
1484.4341567601
 20
2898.7306412069
  0
VERTEX
  8
GSLAYER
 10
1485.076469886
 20
2896.9077401494
  0
VERTEX
  8
GSLAYER
 10
1485.4963058398
 20
2895.0561319886
  0
VERTEX
  8
GSLAYER
 10
1485.6936646215
 20
2893.1758167245
  0
VERTEX
  8
GSLAYER
 10
1485.6936646215
 20
2893.0609883114
  0
VERTEX
  8
GSLAYER
 10
1469.9049620862
 20
2893.0609883114
  0
SEQEND
  0
POLYLINE
  8
GSLAYER
 70
128
 66
1
  0
VERTEX
  8
GSLAYER
 10
1468.1825581732
 20
2893.0609883114
  0
VERTEX
  8
GSLAYER
 10
1452.3938556379
 20
2893.0609883114
  0
VERTEX
  8
GSLAYER
 10
1452.3938556379
 20
2893.1758167245
  0
VERTEX
  8
GSLAYER
 10
1452.5912144196
 20
2895.0346016611
  0
VERTEX
  8
GSLAYER
 10
1453.0110503734
 20
2896.8790330461
  0
VERTEX
  8
GSLAYER
 10
1453.6533634993
 20
2898.7091108795
  0
VERTEX
  8
GSLAYER
 10
1454.5181537972
 20
2900.5248351612
  0
VERTEX
  8
GSLAYER
 10
1455.7668966341
 20
2902.4195039769
  0
VERTEX
  8
GSLAYER
 10
1457.2165865942
 20
2904.0845159665
  0
VERTEX
  8
GSLAYER
 10
1458.8672236774
 20
2905.5198711299
  0
VERTEX
  8
GSLAYER
 10
1460.7188078838
 20
2906.7255694672
  0
VERTEX
  8
GSLAYER
 10
1462.5129786265
 20
2907.5903709531
  0
VERTEX
  8
GSLAYER
 10
1464.335856101
 20
2908.2326923888
  0
VERTEX
  8
GSLAYER
 10
1466.1874403074
 20
2908.6525337741
  0
VERTEX
  8
GSLAYER
 10
1468.0677312457
 20
2908.849895109
  0
VERTEX
  8
GSLAYER
 10
1468.1825581732
 20
2908.849895109
  0
VERTEX
  8
GSLAYER
 10
1468.1825581732
 20
2893.0609883114
  0
SEQEND
  0
POLYLINE
  8
GSLAYER
 70
128
 66
1
  0
VERTEX
  8
GSLAYER
 10
1553.7161379949
 20
2905.7794831942
  0
VERTEX
  8
GSLAYER
 10
1552.6229419607
 20
2905.7091195879
  0
VERTEX
  8
GSLAYER
 10
1551.5400429064
 20
2905.4980287687
  0
VERTEX
  8
GSLAYER
 10
1550.467440832
 20
2905.1462107368
  0
VERTEX
  8
GSLAYER
 10
1549.4051357375
 20
2904.6536654922
  0
VERTEX
  8
GSLAYER
 10
1548.4080448491
 20
2904.0186768492
  0
VERTEX
  8
GSLAYER
 10
1547.5310853931
 20
2903.2669875908
  0
VERTEX
  8
GSLAYER
 10
1546.7742573694
 20
2902.3985977169
  0
VERTEX
  8
GSLAYER
 10
1546.137560778
 20
2901.4135072276
  0
VERTEX
  8
GSLAYER
 10
1545.8655488919
 20
2900.8874963653
  0
VERTEX
  8
GSLAYER
 10
1545.6261441089
 20
2900.3529045753
  0
VERTEX
  8
GSLAYER
 10
1545.419346429
 20
2899.8097318578
  0
VERTEX
  8
GSLAYER
 10
1545.2451558521
 20
2899.2579782126
  0
VERTEX
  8
GSLAYER
 10
1545.1070047049
 20
2898.6993598254
  0
VERTEX
  8
GSLAYER
 10
1545.0083253141
 20
2898.1355928816
  0
VERTEX
  8
GSLAYER
 10
1544.9491176795
 20
2897.5666773812
  0
VERTEX
  8
GSLAYER
 10
1544.9293818014
 20
2896.9926133243
  0
VERTEX
  8
GSLAYER
 10
1545.0031768241
 20
2895.8994031471
  0
VERTEX
  8
GSLAYER
 10
1545.2245618923
 20
2894.816490083
  0
VERTEX
  8
GSLAYER
 10
1545.5935370058
 20
2893.7438741321
  0
VERTEX
  8
GSLAYER
 10
1546.1101021649
 20
2892.6815552943
  0
VERTEX
  8
GSLAYER
 10
1546.7673927161
 20
2891.6741543932
  0
VERTEX
  8
GSLAYER
 10
1547.5310853931
 20
2890.7937512207
  0
VERTEX
  8
GSLAYER
 10
1548.4011801958
 20
2890.0403457767
  0
VERTEX
  8
GSLAYER
 10
1549.3776771244
 20
2889.4139380614
  0
VERTEX
  8
GSLAYER
 10
1549.9011069367
 20
2889.1530778621
  0
VERTEX
  8
GSLAYER
 10
1550.4279690756
 20
2888.9196766312
  0
VERTEX
  8
GSLAYER
 10
1550.9582635412
 20
2888.7137343686
  0
VERTEX
  8
GSLAYER
 10
1551.4919903334
 20
2888.5352510744
  0
VERTEX
  8
GSLAYER
 10
1552.0325817789
 20
2888.3910914906
  0
VERTEX
  8
GSLAYER
 10
1552.5834702044
 20
2888.2881203593
  0
VERTEX
  8
GSLAYER
 10
1553.1446556097
 20
2888.2263376805
  0
VERTEX
  8
GSLAYER
 10
1553.7161379949
 20
2888.2057434543
  0
VERTEX
  8
GSLAYER
 10
1554.2884784618
 20
2888.2263376805
  0
VERTEX
  8
GSLAYER
 10
1554.8522381122
 20
2888.2881203593
  0
VERTEX
  8
GSLAYER
 10
1555.4074169459
 20
2888.3910914906
  0
VERTEX
  8
GSLAYER
 10
1555.954014963
 20
2888.5352510744
  0
VERTEX
  8
GSLAYER
 10
1556.4937483268
 20
2888.7137343686
  0
VERTEX
  8
GSLAYER
 10
1557.0283332007
 20
2888.9196766312
  0
VERTEX
  8
GSLAYER
 10
1557.5577695846
 20
2889.1530778621
  0
VERTEX
  8
GSLAYER
 10
1558.0820574786
 20
2889.4139380614
  0
VERTEX
  8
GSLAYER
 10
1559.0568382438
 20
2890.0403457767
  0
VERTEX
  8
GSLAYER
 10
1559.9217845566
 20
2890.7937512207
  0
VERTEX
  8
GSLAYER
 10
1560.676896417
 20
2891.6741543932
  0
VERTEX
  8
GSLAYER
 10
1561.322173825
 20
2892.6815552943
  0
VERTEX
  8
GSLAYER
 10
1561.838738984
 20
2893.7438741321
  0
VERTEX
  8
GSLAYER
 10
1562.2077140976
 20
2894.816490083
  0
VERTEX
  8
GSLAYER
 10
1562.4290991658
 20
2895.8994031471
  0
VERTEX
  8
GSLAYER
 10
1562.5028941885
 20
2896.9926133243
  0
VERTEX
  8
GSLAYER
 10
1562.4290991658
 20
2898.1235795829
  0
VERTEX
  8
GSLAYER
 10
1562.2077140976
 20
2899.2373839864
  0
VERTEX
  8
GSLAYER
 10
1561.838738984
 20
2900.3340265346
  0
VERTEX
  8
GSLAYER
 10
1561.322173825
 20
2901.4135072276
  0
VERTEX
  8
GSLAYER
 10
1561.0072578559
 20
2901.921498142
  0
VERTEX
  8
GSLAYER
 10
1560.6665994371
 20
2902.402030088
  0
VERTEX
  8
GSLAYER
 10
1560.3001985685
 20
2902.8551030656
  0
VERTEX
  8
GSLAYER
 10
1559.9080552501
 20
2903.280717075
  0
VERTEX
  8
GSLAYER
 10
1559.4884533186
 20
2903.6754397449
  0
VERTEX
  8
GSLAYER
 10
1559.0396766106
 20
2904.0358387044
  0
VERTEX
  8
GSLAYER
 10
1558.5617251263
 20
2904.3619139535
  0
VERTEX
  8
GSLAYER
 10
1558.0545988655
 20
2904.6536654922
  0
VERTEX
  8
GSLAYER
 10
1556.9699836479
 20
2905.1462107368
  0
VERTEX
  8
GSLAYER
 10
1555.8853684302
 20
2905.4980287687
  0
VERTEX
  8
GSLAYER
 10
1554.8007532126
 20
2905.7091195879
  0
VERTEX
  8
GSLAYER
 10
1553.7161379949
 20
2905.7794831942
  0
SEQEND
  0
POLYLINE
  8
GSLAYER
 70
128
 66
1
  0
VERTEX
  8
GSLAYER
 10
1554.1280171915
 20
2896.5807287991
  0
VERTEX
  8
GSLAYER
 10
1561.6791357954
 20
2896.5807287991
  0
VERTEX
  8
GSLAYER
 10
1561.6791357954
 20
2896.5258108624
  0
VERTEX
  8
GSLAYER
 10
1561.5847468128
 20
2895.6368267623
  0
VERTEX
  8
GSLAYER
 10
1561.3839557045
 20
2894.7547074043
  0
VERTEX
  8
GSLAYER
 10
1561.0767624704
 20
2893.8794527883
  0
VERTEX
  8
GSLAYER
 10
1560.6631671105
 20
2893.0110629144
  0
VERTEX
  8
GSLAYER
 10
1560.0659422754
 20
2892.1049169591
  0
VERTEX
  8
GSLAYER
 10
1559.3726122945
 20
2891.3086068771
  0
VERTEX
  8
GSLAYER
 10
1558.5831771678
 20
2890.6221326685
  0
VERTEX
  8
GSLAYER
 10
1557.6976368951
 20
2890.0454943333
  0
VERTEX
  8
GSLAYER
 10
1556.8395552356
 20
2889.6318936226
  0
VERTEX
  8
GSLAYER
 10
1555.9677442695
 20
2889.3246964143
  0
VERTEX
  8
GSLAYER
 10
1555.0822039969
 20
2889.1239027083
  0
VERTEX
  8
GSLAYER
 10
1554.1829344177
 20
2889.0295125046
  0
VERTEX
  8
GSLAYER
 10
1554.1280171915
 20
2889.0295125046
  0
VERTEX
  8
GSLAYER
 10
1554.1280171915
 20
2896.5807287991
  0
SEQEND
  0
POLYLINE
  8
GSLAYER
 70
128
 66
1
  0
VERTEX
  8
GSLAYER
 10
1553.3042587984
 20
2896.5807287991
  0
VERTEX
  8
GSLAYER
 10
1553.3042587984
 20
2889.0295125046
  0
VERTEX
  8
GSLAYER
 10
1553.2493415722
 20
2889.0295125046
  0
VERTEX
  8
GSLAYER
 10
1552.3603689729
 20
2889.1239027083
  0
VERTEX
  8
GSLAYER
 10
1551.4782610269
 20
2889.3246964143
  0
VERTEX
  8
GSLAYER
 10
1550.6030177342
 20
2889.6318936226
  0
VERTEX
  8
GSLAYER
 10
1549.7346390947
 20
2890.0454943333
  0
VERTEX
  8
GSLAYER
 10
1548.8285048623
 20
2890.6427268948
  0
VERTEX
  8
GSLAYER
 10
1548.0322050822
 20
2891.3360658455
  0
VERTEX
  8
GSLAYER
 10
1547.3457397546
 20
2892.1255111853
  0
VERTEX
  8
GSLAYER
 10
1546.7691088794
 20
2893.0110629144
  0
VERTEX
  8
GSLAYER
 10
1546.3555135195
 20
2893.8691556752
  0
VERTEX
  8
GSLAYER
 10
1546.0483202854
 20
2894.7409779201
  0
VERTEX
  8
GSLAYER
 10
1545.8475291771
 20
2895.6265296492
  0
VERTEX
  8
GSLAYER
 10
1545.7531401945
 20
2896.5258108624
  0
VERTEX
  8
GSLAYER
 10
1545.7531401945
 20
2896.5807287991
  0
VERTEX
  8
GSLAYER
 10
1553.3042587984
 20
2896.5807287991
  0
SEQEND
  0
POLYLINE
  8
GSLAYER
 70
128
 66
1
  0
VERTEX
  8
GSLAYER
 10
1554.1280171915
 20
2897.4044978494
  0
VERTEX
  8
GSLAYER
 10
1554.1280171915
 20
2904.9557141439
  0
VERTEX
  8
GSLAYER
 10
1554.1829344177
 20
2904.9557141439
  0
VERTEX
  8
GSLAYER
 10
1555.071907017
 20
2904.8613239403
  0
VERTEX
  8
GSLAYER
 10
1555.954014963
 20
2904.6605302342
  0
VERTEX
  8
GSLAYER
 10
1556.8292582557
 20
2904.3533330259
  0
VERTEX
  8
GSLAYER
 10
1557.6976368951
 20
2903.9397323152
  0
VERTEX
  8
GSLAYER
 10
1558.6037711276
 20
2903.3424997537
  0
VERTEX
  8
GSLAYER
 10
1559.4000709076
 20
2902.6491608031
  0
VERTEX
  8
GSLAYER
 10
1560.0865362353
 20
2901.8597154632
  0
VERTEX
  8
GSLAYER
 10
1560.6631671105
 20
2900.9741637341
  0
VERTEX
  8
GSLAYER
 10
1561.0767624704
 20
2900.1160709734
  0
VERTEX
  8
GSLAYER
 10
1561.3839557045
 20
2899.2442487285
  0
VERTEX
  8
GSLAYER
 10
1561.5847468128
 20
2898.3586969994
  0
VERTEX
  8
GSLAYER
 10
1561.6791357954
 20
2897.4594157861
  0
VERTEX
  8
GSLAYER
 10
1561.6791357954
 20
2897.4044978494
  0
VERTEX
  8
GSLAYER
 10
1554.1280171915
 20
2897.4044978494
  0
SEQEND
  0
POLYLINE
  8
GSLAYER
 70
128
 66
1
  0
VERTEX
  8
GSLAYER
 10
1553.3042587984
 20
2897.4044978494
  0
VERTEX
  8
GSLAYER
 10
1545.7531401945
 20
2897.4044978494
  0
VERTEX
  8
GSLAYER
 10
1545.7531401945
 20
2897.4594157861
  0
VERTEX
  8
GSLAYER
 10
1545.8475291771
 20
2898.3483998862
  0
VERTEX
  8
GSLAYER
 10
1546.0483202854
 20
2899.2305192443
  0
VERTEX
  8
GSLAYER
 10
1546.3555135195
 20
2900.1057738602
  0
VERTEX
  8
GSLAYER
 10
1546.7691088794
 20
2900.9741637341
  0
VERTEX
  8
GSLAYER
 10
1547.3663337144
 20
2901.8803096894
  0
VERTEX
  8
GSLAYER
 10
1548.0596636953
 20
2902.6766197714
  0
VERTEX
  8
GSLAYER
 10
1548.8490988221
 20
2903.36309398
  0
VERTEX
  8
GSLAYER
 10
1549.7346390947
 20
2903.9397323152
  0
VERTEX
  8
GSLAYER
 10
1550.5927207543
 20
2904.3533330259
  0
VERTEX
  8
GSLAYER
 10
1551.4645317203
 20
2904.6605302342
  0
VERTEX
  8
GSLAYER
 10
1552.350071993
 20
2904.8613239403
  0
VERTEX
  8
GSLAYER
 10
1553.2493415722
 20
2904.9557141439
  0
VERTEX
  8
GSLAYER
 10
1553.3042587984
 20
2904.9557141439
  0
VERTEX
  8
GSLAYER
 10
1553.3042587984
 20
2897.4044978494
  0
SEQEND
  0
POLYLINE
  8
GSLAYER
 70
128
 66
1
  0
VERTEX
  8
GSLAYER
 10
2994.7441537393
 20
3252.4614398827
  0
VERTEX
  8
GSLAYER
 10
2993.6509577051
 20
3252.3910762763
  0
VERTEX
  8
GSLAYER
 10
2992.5680586507
 20
3252.1799854572
  0
VERTEX
  8
GSLAYER
 10
2991.4954565763
 20
3251.8281674253
  0
VERTEX
  8
GSLAYER
 10
2990.4331514818
 20
3251.3356221806
  0
VERTEX
  8
GSLAYER
 10
2989.4360605935
 20
3250.7006335377
  0
VERTEX
  8
GSLAYER
 10
2988.5591011374
 20
3249.9489442793
  0
VERTEX
  8
GSLAYER
 10
2987.8022731137
 20
3249.0805544054
  0
VERTEX
  8
GSLAYER
 10
2987.1655765224
 20
3248.0954639161
  0
VERTEX
  8
GSLAYER
 10
2986.8935646363
 20
3247.5694530537
  0
VERTEX
  8
GSLAYER
 10
2986.6541598533
 20
3247.0348612638
  0
VERTEX
  8
GSLAYER
 10
2986.4473621733
 20
3246.4916885462
  0
VERTEX
  8
GSLAYER
 10
2986.2731715964
 20
3245.9399349011
  0
VERTEX
  8
GSLAYER
 10
2986.1350204493
 20
3245.3813165138
  0
VERTEX
  8
GSLAYER
 10
2986.0363410584
 20
3244.81754957
  0
VERTEX
  8
GSLAYER
 10
2985.9771334239
 20
3244.2486340697
  0
VERTEX
  8
GSLAYER
 10
2985.9573975457
 20
3243.6745700127
  0
VERTEX
  8
GSLAYER
 10
2986.0311925685
 20
3242.5813598355
  0
VERTEX
  8
GSLAYER
 10
2986.2525776366
 20
3241.4984467715
  0
VERTEX
  8
GSLAYER
 10
2986.6215527502
 20
3240.4258308206
  0
VERTEX
  8
GSLAYER
 10
2987.1381179093
 20
3239.3635119828
  0
VERTEX
  8
GSLAYER
 10
2987.7954084605
 20
3238.3561110816
  0
VERTEX
  8
GSLAYER
 10
2988.5591011374
 20
3237.4757079091
  0
VERTEX
  8
GSLAYER
 10
2989.4291959402
 20
3236.7223024652
  0
VERTEX
  8
GSLAYER
 10
2990.4056928687
 20
3236.0958947499
  0
VERTEX
  8
GSLAYER
 10
2990.929122681
 20
3235.8350345506
  0
VERTEX
  8
GSLAYER
 10
2991.45598482
 20
3235.6016333197
  0
VERTEX
  8
GSLAYER
 10
2991.9862792856
 20
3235.3956910571
  0
VERTEX
  8
GSLAYER
 10
2992.5200060778
 20
3235.2172077629
  0
VERTEX
  8
GSLAYER
 10
2993.0605975233
 20
3235.0730481791
  0
VERTEX
  8
GSLAYER
 10
2993.6114859487
 20
3234.9700770478
  0
VERTEX
  8
GSLAYER
 10
2994.1726713541
 20
3234.908294369
  0
VERTEX
  8
GSLAYER
 10
2994.7441537393
 20
3234.8877001427
  0
VERTEX
  8
GSLAYER
 10
2995.3164942062
 20
3234.908294369
  0
VERTEX
  8
GSLAYER
 10
2995.8802538565
 20
3234.9700770478
  0
VERTEX
  8
GSLAYER
 10
2996.4354326902
 20
3235.0730481791
  0
VERTEX
  8
GSLAYER
 10
2996.9820307074
 20
3235.2172077629
  0
VERTEX
  8
GSLAYER
 10
2997.5217640712
 20
3235.3956910571
  0
VERTEX
  8
GSLAYER
 10
2998.0563489451
 20
3235.6016333197
  0
VERTEX
  8
GSLAYER
 10
2998.585785329
 20
3235.8350345506
  0
VERTEX
  8
GSLAYER
 10
2999.110073223
 20
3236.0958947499
  0
VERTEX
  8
GSLAYER
 10
3000.0848539882
 20
3236.7223024652
  0
VERTEX
  8
GSLAYER
 10
3000.949800301
 20
3237.4757079091
  0
VERTEX
  8
GSLAYER
 10
3001.7049121614
 20
3238.3561110816
  0
VERTEX
  8
GSLAYER
 10
3002.3501895694
 20
3239.3635119828
  0
VERTEX
  8
GSLAYER
 10
3002.8667547284
 20
3240.4258308206
  0
VERTEX
  8
GSLAYER
 10
3003.235729842
 20
3241.4984467715
  0
VERTEX
  8
GSLAYER
 10
3003.4571149102
 20
3242.5813598355
  0
VERTEX
  8
GSLAYER
 10
3003.5309099329
 20
3243.6745700127
  0
VERTEX
  8
GSLAYER
 10
3003.4571149102
 20
3244.8055362714
  0
VERTEX
  8
GSLAYER
 10
3003.235729842
 20
3245.9193406748
  0
VERTEX
  8
GSLAYER
 10
3002.8667547284
 20
3247.015983223
  0
VERTEX
  8
GSLAYER
 10
3002.3501895694
 20
3248.0954639161
  0
VERTEX
  8
GSLAYER
 10
3002.0352736003
 20
3248.6034548304
  0
VERTEX
  8
GSLAYER
 10
3001.6946151815
 20
3249.0839867764
  0
VERTEX
  8
GSLAYER
 10
3001.3282143129
 20
3249.5370597541
  0
VERTEX
  8
GSLAYER
 10
3000.9360709945
 20
3249.9626737634
  0
VERTEX
  8
GSLAYER
 10
3000.5164690629
 20
3250.3573964334
  0
VERTEX
  8
GSLAYER
 10
3000.067692355
 20
3250.7177953929
  0
VERTEX
  8
GSLAYER
 10
2999.5897408707
 20
3251.043870642
  0
VERTEX
  8
GSLAYER
 10
2999.0826146099
 20
3251.3356221806
  0
VERTEX
  8
GSLAYER
 10
2997.9979993922
 20
3251.8281674253
  0
VERTEX
  8
GSLAYER
 10
2996.9133841746
 20
3252.1799854572
  0
VERTEX
  8
GSLAYER
 10
2995.8287689569
 20
3252.3910762763
  0
VERTEX
  8
GSLAYER
 10
2994.7441537393
 20
3252.4614398827
  0
SEQEND
  0
POLYLINE
  8
GSLAYER
 70
128
 66
1
  0
VERTEX
  8
GSLAYER
 10
2995.1560329359
 20
3243.2626854876
  0
VERTEX
  8
GSLAYER
 10
3002.7071515397
 20
3243.2626854876
  0
VERTEX
  8
GSLAYER
 10
3002.7071515397
 20
3243.2077675509
  0
VERTEX
  8
GSLAYER
 10
3002.6127625572
 20
3242.3187834507
  0
VERTEX
  8
GSLAYER
 10
3002.4119714488
 20
3241.4366640927
  0
VERTEX
  8
GSLAYER
 10
3002.1047782147
 20
3240.5614094767
  0
VERTEX
  8
GSLAYER
 10
3001.6911828548
 20
3239.6930196029
  0
VERTEX
  8
GSLAYER
 10
3001.0939580198
 20
3238.7868736475
  0
VERTEX
  8
GSLAYER
 10
3000.4006280389
 20
3237.9905635656
  0
VERTEX
  8
GSLAYER
 10
2999.6111929121
 20
3237.304089357
  0
VERTEX
  8
GSLAYER
 10
2998.7256526395
 20
3236.7274510218
  0
VERTEX
  8
GSLAYER
 10
2997.86757098
 20
3236.3138503111
  0
VERTEX
  8
GSLAYER
 10
2996.9957600139
 20
3236.0066531027
  0
VERTEX
  8
GSLAYER
 10
2996.1102197413
 20
3235.8058593967
  0
VERTEX
  8
GSLAYER
 10
2995.2109501621
 20
3235.711469193
  0
VERTEX
  8
GSLAYER
 10
2995.1560329359
 20
3235.711469193
  0
VERTEX
  8
GSLAYER
 10
2995.1560329359
 20
3243.2626854876
  0
SEQEND
  0
POLYLINE
  8
GSLAYER
 70
128
 66
1
  0
VERTEX
  8
GSLAYER
 10
2994.3322745427
 20
3243.2626854876
  0
VERTEX
  8
GSLAYER
 10
2994.3322745427
 20
3235.711469193
  0
VERTEX
  8
GSLAYER
 10
2994.2773573165
 20
3235.711469193
  0
VERTEX
  8
GSLAYER
 10
2993.3883847173
 20
3235.8058593967
  0
VERTEX
  8
GSLAYER
 10
2992.5062767713
 20
3236.0066531027
  0
VERTEX
  8
GSLAYER
 10
2991.6310334785
 20
3236.3138503111
  0
VERTEX
  8
GSLAYER
 10
2990.7626548391
 20
3236.7274510218
  0
VERTEX
  8
GSLAYER
 10
2989.8565206066
 20
3237.3246835832
  0
VERTEX
  8
GSLAYER
 10
2989.0602208266
 20
3238.0180225339
  0
VERTEX
  8
GSLAYER
 10
2988.373755499
 20
3238.8074678738
  0
VERTEX
  8
GSLAYER
 10
2987.7971246238
 20
3239.6930196029
  0
VERTEX
  8
GSLAYER
 10
2987.3835292639
 20
3240.5511123636
  0
VERTEX
  8
GSLAYER
 10
2987.0763360298
 20
3241.4229346085
  0
VERTEX
  8
GSLAYER
 10
2986.8755449214
 20
3242.3084863376
  0
VERTEX
  8
GSLAYER
 10
2986.7811559389
 20
3243.2077675509
  0
VERTEX
  8
GSLAYER
 10
2986.7811559389
 20
3243.2626854876
  0
VERTEX
  8
GSLAYER
 10
2994.3322745427
 20
3243.2626854876
  0
SEQEND
  0
POLYLINE
  8
GSLAYER
 70
128
 66
1
  0
VERTEX
  8
GSLAYER
 10
2995.1560329359
 20
3244.0864545379
  0
VERTEX
  8
GSLAYER
 10
2995.1560329359
 20
3251.6376708324
  0
VERTEX
  8
GSLAYER
 10
2995.2109501621
 20
3251.6376708324
  0
VERTEX
  8
GSLAYER
 10
2996.0999227614
 20
3251.5432806287
  0
VERTEX
  8
GSLAYER
 10
2996.9820307074
 20
3251.3424869227
  0
VERTEX
  8
GSLAYER
 10
2997.8572740001
 20
3251.0352897143
  0
VERTEX
  8
GSLAYER
 10
2998.7256526395
 20
3250.6216890037
  0
VERTEX
  8
GSLAYER
 10
2999.631786872
 20
3250.0244564422
  0
VERTEX
  8
GSLAYER
 10
3000.428086652
 20
3249.3311174915
  0
VERTEX
  8
GSLAYER
 10
3001.1145519796
 20
3248.5416721516
  0
VERTEX
  8
GSLAYER
 10
3001.6911828548
 20
3247.6561204226
  0
VERTEX
  8
GSLAYER
 10
3002.1047782147
 20
3246.7980276618
  0
VERTEX
  8
GSLAYER
 10
3002.4119714488
 20
3245.9262054169
  0
VERTEX
  8
GSLAYER
 10
3002.6127625572
 20
3245.0406536878
  0
VERTEX
  8
GSLAYER
 10
3002.7071515397
 20
3244.1413724746
  0
VERTEX
  8
GSLAYER
 10
3002.7071515397
 20
3244.0864545379
  0
VERTEX
  8
GSLAYER
 10
2995.1560329359
 20
3244.0864545379
  0
SEQEND
  0
POLYLINE
  8
GSLAYER
 70
128
 66
1
  0
VERTEX
  8
GSLAYER
 10
2994.3322745427
 20
3244.0864545379
  0
VERTEX
  8
GSLAYER
 10
2986.7811559389
 20
3244.0864545379
  0
VERTEX
  8
GSLAYER
 10
2986.7811559389
 20
3244.1413724746
  0
VERTEX
  8
GSLAYER
 10
2986.8755449214
 20
3245.0303565747
  0
VERTEX
  8
GSLAYER
 10
2987.0763360298
 20
3245.9124759327
  0
VERTEX
  8
GSLAYER
 10
2987.3835292639
 20
3246.7877305487
  0
VERTEX
  8
GSLAYER
 10
2987.7971246238
 20
3247.6561204226
  0
VERTEX
  8
GSLAYER
 10
2988.3943494588
 20
3248.5622663779
  0
VERTEX
  8
GSLAYER
 10
2989.0876794397
 20
3249.3585764599
  0
VERTEX
  8
GSLAYER
 10
2989.8771145665
 20
3250.0450506685
  0
VERTEX
  8
GSLAYER
 10
2990.7626548391
 20
3250.6216890037
  0
VERTEX
  8
GSLAYER
 10
2991.6207364986
 20
3251.0352897143
  0
VERTEX
  8
GSLAYER
 10
2992.4925474647
 20
3251.3424869227
  0
VERTEX
  8
GSLAYER
 10
2993.3780877373
 20
3251.5432806287
  0
VERTEX
  8
GSLAYER
 10
2994.2773573165
 20
3251.6376708324
  0
VERTEX
  8
GSLAYER
 10
2994.3322745427
 20
3251.6376708324
  0
VERTEX
  8
GSLAYER
 10
2994.3322745427
 20
3244.0864545379
  0
SEQEND
  0
POLYLINE
  8
GSLAYER
 70
128
 66
1
  0
VERTEX
  8
GSLAYER
 10
3200.8335262792
 20
4698.3009366709
  0
VERTEX
  8
GSLAYER
 10
3199.740330245
 20
4698.2305730646
  0
VERTEX
  8
GSLAYER
 10
3198.6574311907
 20
4698.0194822454
  0
VERTEX
  8
GSLAYER
 10
3197.5848291163
 20
4697.6676642135
  0
VERTEX
  8
GSLAYER
 10
3196.5225240218
 20
4697.1751189688
  0
VERTEX
  8
GSLAYER
 10
3195.5254331334
 20
4696.5401303259
  0
VERTEX
  8
GSLAYER
 10
3194.6484736774
 20
4695.7884410675
  0
VERTEX
  8
GSLAYER
 10
3193.8916456537
 20
4694.9200511936
  0
VERTEX
  8
GSLAYER
 10
3193.2549490623
 20
4693.9349607043
  0
VERTEX
  8
GSLAYER
 10
3192.9829371762
 20
4693.408949842
  0
VERTEX
  8
GSLAYER
 10
3192.7435323932
 20
4692.874358052
  0
VERTEX
  8
GSLAYER
 10
3192.5367347133
 20
4692.3311853345
  0
VERTEX
  8
GSLAYER
 10
3192.3625441364
 20
4691.7794316893
  0
VERTEX
  8
GSLAYER
 10
3192.2243929892
 20
4691.2208133021
  0
VERTEX
  8
GSLAYER
 10
3192.1257135984
 20
4690.6570463583
  0
VERTEX
  8
GSLAYER
 10
3192.0665059638
 20
4690.0881308579
  0
VERTEX
  8
GSLAYER
 10
3192.0467700857
 20
4689.514066801
  0
VERTEX
  8
GSLAYER
 10
3192.1205651084
 20
4688.4208566238
  0
VERTEX
  8
GSLAYER
 10
3192.3419501766
 20
4687.3379435597
  0
VERTEX
  8
GSLAYER
 10
3192.7109252902
 20
4686.2653276088
  0
VERTEX
  8
GSLAYER
 10
3193.2274904492
 20
4685.203008771
  0
VERTEX
  8
GSLAYER
 10
3193.8847810004
 20
4684.1956078699
  0
VERTEX
  8
GSLAYER
 10
3194.6484736774
 20
4683.3152046974
  0
VERTEX
  8
GSLAYER
 10
3195.5185684801
 20
4682.5617992534
  0
VERTEX
  8
GSLAYER
 10
3196.4950654087
 20
4681.9353915381
  0
VERTEX
  8
GSLAYER
 10
3197.018495221
 20
4681.6745313388
  0
VERTEX
  8
GSLAYER
 10
3197.5453573599
 20
4681.4411301079
  0
VERTEX
  8
GSLAYER
 10
3198.0756518255
 20
4681.2351878453
  0
VERTEX
  8
GSLAYER
 10
3198.6093786177
 20
4681.0567045511
  0
VERTEX
  8
GSLAYER
 10
3199.1499700633
 20
4680.9125449673
  0
VERTEX
  8
GSLAYER
 10
3199.7008584887
 20
4680.809573836
  0
VERTEX
  8
GSLAYER
 10
3200.262043894
 20
4680.7477911572
  0
VERTEX
  8
GSLAYER
 10
3200.8335262792
 20
4680.727196931
  0
VERTEX
  8
GSLAYER
 10
3201.4058667461
 20
4680.7477911572
  0
VERTEX
  8
GSLAYER
 10
3201.9696263965
 20
4680.809573836
  0
VERTEX
  8
GSLAYER
 10
3202.5248052302
 20
4680.9125449673
  0
VERTEX
  8
GSLAYER
 10
3203.0714032473
 20
4681.0567045511
  0
VERTEX
  8
GSLAYER
 10
3203.6111366111
 20
4681.2351878453
  0
VERTEX
  8
GSLAYER
 10
3204.145721485
 20
4681.4411301079
  0
VERTEX
  8
GSLAYER
 10
3204.6751578689
 20
4681.6745313388
  0
VERTEX
  8
GSLAYER
 10
3205.1994457629
 20
4681.9353915381
  0
VERTEX
  8
GSLAYER
 10
3206.1742265281
 20
4682.5617992534
  0
VERTEX
  8
GSLAYER
 10
3207.0391728409
 20
4683.3152046974
  0
VERTEX
  8
GSLAYER
 10
3207.7942847013
 20
4684.1956078699
  0
VERTEX
  8
GSLAYER
 10
3208.4395621093
 20
4685.203008771
  0
VERTEX
  8
GSLAYER
 10
3208.9561272683
 20
4686.2653276088
  0
VERTEX
  8
GSLAYER
 10
3209.3251023819
 20
4687.3379435597
  0
VERTEX
  8
GSLAYER
 10
3209.5464874501
 20
4688.4208566238
  0
VERTEX
  8
GSLAYER
 10
3209.6202824728
 20
4689.514066801
  0
VERTEX
  8
GSLAYER
 10
3209.5464874501
 20
4690.6450330596
  0
VERTEX
  8
GSLAYER
 10
3209.3251023819
 20
4691.7588374631
  0
VERTEX
  8
GSLAYER
 10
3208.9561272683
 20
4692.8554800113
  0
VERTEX
  8
GSLAYER
 10
3208.4395621093
 20
4693.9349607043
  0
VERTEX
  8
GSLAYER
 10
3208.1246461403
 20
4694.4429516187
  0
VERTEX
  8
GSLAYER
 10
3207.7839877214
 20
4694.9234835647
  0
VERTEX
  8
GSLAYER
 10
3207.4175868528
 20
4695.3765565423
  0
VERTEX
  8
GSLAYER
 10
3207.0254435344
 20
4695.8021705517
  0
VERTEX
  8
GSLAYER
 10
3206.6058416029
 20
4696.1968932216
  0
VERTEX
  8
GSLAYER
 10
3206.157064895
 20
4696.5572921811
  0
VERTEX
  8
GSLAYER
 10
3205.6791134106
 20
4696.8833674302
  0
VERTEX
  8
GSLAYER
 10
3205.1719871498
 20
4697.1751189688
  0
VERTEX
  8
GSLAYER
 10
3204.0873719322
 20
4697.6676642135
  0
VERTEX
  8
GSLAYER
 10
3203.0027567145
 20
4698.0194822454
  0
VERTEX
  8
GSLAYER
 10
3201.9181414969
 20
4698.2305730646
  0
VERTEX
  8
GSLAYER
 10
3200.8335262792
 20
4698.3009366709
  0
SEQEND
  0
POLYLINE
  8
GSLAYER
 70
128
 66
1
  0
VERTEX
  8
GSLAYER
 10
3201.2454054758
 20
4689.1021822758
  0
VERTEX
  8
GSLAYER
 10
3208.7965240797
 20
4689.1021822758
  0
VERTEX
  8
GSLAYER
 10
3208.7965240797
 20
4689.0472643391
  0
VERTEX
  8
GSLAYER
 10
3208.7021350971
 20
4688.158280239
  0
VERTEX
  8
GSLAYER
 10
3208.5013439888
 20
4687.2761608809
  0
VERTEX
  8
GSLAYER
 10
3208.1941507547
 20
4686.400906265
  0
VERTEX
  8
GSLAYER
 10
3207.7805553948
 20
4685.5325163911
  0
VERTEX
  8
GSLAYER
 10
3207.1833305597
 20
4684.6263704358
  0
VERTEX
  8
GSLAYER
 10
3206.4900005789
 20
4683.8300603538
  0
VERTEX
  8
GSLAYER
 10
3205.7005654521
 20
4683.1435861452
  0
VERTEX
  8
GSLAYER
 10
3204.8150251795
 20
4682.56694781
  0
VERTEX
  8
GSLAYER
 10
3203.9569435199
 20
4682.1533470993
  0
VERTEX
  8
GSLAYER
 10
3203.0851325538
 20
4681.846149891
  0
VERTEX
  8
GSLAYER
 10
3202.1995922812
 20
4681.645356185
  0
VERTEX
  8
GSLAYER
 10
3201.300322702
 20
4681.5509659813
  0
VERTEX
  8
GSLAYER
 10
3201.2454054758
 20
4681.5509659813
  0
VERTEX
  8
GSLAYER
 10
3201.2454054758
 20
4689.1021822758
  0
SEQEND
  0
POLYLINE
  8
GSLAYER
 70
128
 66
1
  0
VERTEX
  8
GSLAYER
 10
3200.4216470827
 20
4689.1021822758
  0
VERTEX
  8
GSLAYER
 10
3200.4216470827
 20
4681.5509659813
  0
VERTEX
  8
GSLAYER
 10
3200.3667298565
 20
4681.5509659813
  0
VERTEX
  8
GSLAYER
 10
3199.4777572572
 20
4681.645356185
  0
VERTEX
  8
GSLAYER
 10
3198.5956493112
 20
4681.846149891
  0
VERTEX
  8
GSLAYER
 10
3197.7204060185
 20
4682.1533470993
  0
VERTEX
  8
GSLAYER
 10
3196.852027379
 20
4682.56694781
  0
VERTEX
  8
GSLAYER
 10
3195.9458931466
 20
4683.1641803715
  0
VERTEX
  8
GSLAYER
 10
3195.1495933665
 20
4683.8575193222
  0
VERTEX
  8
GSLAYER
 10
3194.4631280389
 20
4684.646964662
  0
VERTEX
  8
GSLAYER
 10
3193.8864971637
 20
4685.5325163911
  0
VERTEX
  8
GSLAYER
 10
3193.4729018038
 20
4686.3906091519
  0
VERTEX
  8
GSLAYER
 10
3193.1657085697
 20
4687.2624313968
  0
VERTEX
  8
GSLAYER
 10
3192.9649174614
 20
4688.1479831259
  0
VERTEX
  8
GSLAYER
 10
3192.8705284788
 20
4689.0472643391
  0
VERTEX
  8
GSLAYER
 10
3192.8705284788
 20
4689.1021822758
  0
VERTEX
  8
GSLAYER
 10
3200.4216470827
 20
4689.1021822758
  0
SEQEND
  0
POLYLINE
  8
GSLAYER
 70
128
 66
1
  0
VERTEX
  8
GSLAYER
 10
3201.2454054758
 20
4689.9259513261
  0
VERTEX
  8
GSLAYER
 10
3201.2454054758
 20
4697.4771676206
  0
VERTEX
  8
GSLAYER
 10
3201.300322702
 20
4697.4771676206
  0
VERTEX
  8
GSLAYER
 10
3202.1892953013
 20
4697.3827774169
  0
VERTEX
  8
GSLAYER
 10
3203.0714032473
 20
4697.1819837109
  0
VERTEX
  8
GSLAYER
 10
3203.94664654
 20
4696.8747865026
  0
VERTEX
  8
GSLAYER
 10
3204.8150251795
 20
4696.4611857919
  0
VERTEX
  8
GSLAYER
 10
3205.7211594119
 20
4695.8639532304
  0
VERTEX
  8
GSLAYER
 10
3206.517459192
 20
4695.1706142798
  0
VERTEX
  8
GSLAYER
 10
3207.2039245196
 20
4694.3811689399
  0
VERTEX
  8
GSLAYER
 10
3207.7805553948
 20
4693.4956172108
  0
VERTEX
  8
GSLAYER
 10
3208.1941507547
 20
4692.6375244501
  0
VERTEX
  8
GSLAYER
 10
3208.5013439888
 20
4691.7657022051
  0
VERTEX
  8
GSLAYER
 10
3208.7021350971
 20
4690.8801504761
  0
VERTEX
  8
GSLAYER
 10
3208.7965240797
 20
4689.9808692628
  0
VERTEX
  8
GSLAYER
 10
3208.7965240797
 20
4689.9259513261
  0
VERTEX
  8
GSLAYER
 10
3201.2454054758
 20
4689.9259513261
  0
SEQEND
  0
POLYLINE
  8
GSLAYER
 70
128
 66
1
  0
VERTEX
  8
GSLAYER
 10
3200.4216470827
 20
4689.9259513261
  0
VERTEX
  8
GSLAYER
 10
3192.8705284788
 20
4689.9259513261
  0
VERTEX
  8
GSLAYER
 10
3192.8705284788
 20
4689.9808692628
  0
VERTEX
  8
GSLAYER
 10
3192.9649174614
 20
4690.8698533629
  0
VERTEX
  8
GSLAYER
 10
3193.1657085697
 20
4691.751972721
  0
VERTEX
  8
GSLAYER
 10
3193.4729018038
 20
4692.6272273369
  0
VERTEX
  8
GSLAYER
 10
3193.8864971637
 20
4693.4956172108
  0
VERTEX
  8
GSLAYER
 10
3194.4837219987
 20
4694.4017631661
  0
VERTEX
  8
GSLAYER
 10
3195.1770519796
 20
4695.1980732481
  0
VERTEX
  8
GSLAYER
 10
3195.9664871064
 20
4695.8845474567
  0
VERTEX
  8
GSLAYER
 10
3196.852027379
 20
4696.4611857919
  0
VERTEX
  8
GSLAYER
 10
3197.7101090386
 20
4696.8747865026
  0
VERTEX
  8
GSLAYER
 10
3198.5819200046
 20
4697.1819837109
  0
VERTEX
  8
GSLAYER
 10
3199.4674602773
 20
4697.3827774169
  0
VERTEX
  8
GSLAYER
 10
3200.3667298565
 20
4697.4771676206
  0
VERTEX
  8
GSLAYER
 10
3200.4216470827
 20
4697.4771676206
  0
VERTEX
  8
GSLAYER
 10
3200.4216470827
 20
4689.9259513261
  0
SEQEND
  0
POLYLINE
  8
GSLAYER
 70
128
 66
1
  0
VERTEX
  8
GSLAYER
 10
3544.3158138458
 20
3607.1314600893
  0
VERTEX
  8
GSLAYER
 10
3543.2226178116
 20
3607.0610964829
  0
VERTEX
  8
GSLAYER
 10
3542.1397187572
 20
3606.8500056638
  0
VERTEX
  8
GSLAYER
 10
3541.0671166828
 20
3606.4981876319
  0
VERTEX
  8
GSLAYER
 10
3540.0048115883
 20
3606.0056423872
  0
VERTEX
  8
GSLAYER
 10
3539.0077207
 20
3605.3706537443
  0
VERTEX
  8
GSLAYER
 10
3538.1307612439
 20
3604.6189644859
  0
VERTEX
  8
GSLAYER
 10
3537.3739332202
 20
3603.750574612
  0
VERTEX
  8
GSLAYER
 10
3536.7372366289
 20
3602.7654841227
  0
VERTEX
  8
GSLAYER
 10
3536.4652247428
 20
3602.2394732603
  0
VERTEX
  8
GSLAYER
 10
3536.2258199598
 20
3601.7048814704
  0
VERTEX
  8
GSLAYER
 10
3536.0190222798
 20
3601.1617087528
  0
VERTEX
  8
GSLAYER
 10
3535.8448317029
 20
3600.6099551077
  0
VERTEX
  8
GSLAYER
 10
3535.7066805558
 20
3600.0513367204
  0
VERTEX
  8
GSLAYER
 10
3535.6080011649
 20
3599.4875697766
  0
VERTEX
  8
GSLAYER
 10
3535.5487935304
 20
3598.9186542763
  0
VERTEX
  8
GSLAYER
 10
3535.5290576522
 20
3598.3445902193
  0
VERTEX
  8
GSLAYER
 10
3535.602852675
 20
3597.2513800422
  0
VERTEX
  8
GSLAYER
 10
3535.8242377431
 20
3596.1684669781
  0
VERTEX
  8
GSLAYER
 10
3536.1932128567
 20
3595.0958510272
  0
VERTEX
  8
GSLAYER
 10
3536.7097780158
 20
3594.0335321894
  0
VERTEX
  8
GSLAYER
 10
3537.367068567
 20
3593.0261312883
  0
VERTEX
  8
GSLAYER
 10
3538.1307612439
 20
3592.1457281157
  0
VERTEX
  8
GSLAYER
 10
3539.0008560467
 20
3591.3923226718
  0
VERTEX
  8
GSLAYER
 10
3539.9773529752
 20
3590.7659149565
  0
VERTEX
  8
GSLAYER
 10
3540.5007827875
 20
3590.5050547572
  0
VERTEX
  8
GSLAYER
 10
3541.0276449265
 20
3590.2716535263
  0
VERTEX
  8
GSLAYER
 10
3541.5579393921
 20
3590.0657112637
  0
VERTEX
  8
GSLAYER
 10
3542.0916661843
 20
3589.8872279695
  0
VERTEX
  8
GSLAYER
 10
3542.6322576298
 20
3589.7430683857
  0
VERTEX
  8
GSLAYER
 10
3543.1831460552
 20
3589.6400972544
  0
VERTEX
  8
GSLAYER
 10
3543.7443314606
 20
3589.5783145756
  0
VERTEX
  8
GSLAYER
 10
3544.3158138458
 20
3589.5577203494
  0
VERTEX
  8
GSLAYER
 10
3544.8881543127
 20
3589.5783145756
  0
VERTEX
  8
GSLAYER
 10
3545.451913963
 20
3589.6400972544
  0
VERTEX
  8
GSLAYER
 10
3546.0070927967
 20
3589.7430683857
  0
VERTEX
  8
GSLAYER
 10
3546.5536908139
 20
3589.8872279695
  0
VERTEX
  8
GSLAYER
 10
3547.0934241777
 20
3590.0657112637
  0
VERTEX
  8
GSLAYER
 10
3547.6280090516
 20
3590.2716535263
  0
VERTEX
  8
GSLAYER
 10
3548.1574454355
 20
3590.5050547572
  0
VERTEX
  8
GSLAYER
 10
3548.6817333295
 20
3590.7659149565
  0
VERTEX
  8
GSLAYER
 10
3549.6565140947
 20
3591.3923226718
  0
VERTEX
  8
GSLAYER
 10
3550.5214604075
 20
3592.1457281157
  0
VERTEX
  8
GSLAYER
 10
3551.2765722679
 20
3593.0261312883
  0
VERTEX
  8
GSLAYER
 10
3551.9218496759
 20
3594.0335321894
  0
VERTEX
  8
GSLAYER
 10
3552.4384148349
 20
3595.0958510272
  0
VERTEX
  8
GSLAYER
 10
3552.8073899485
 20
3596.1684669781
  0
VERTEX
  8
GSLAYER
 10
3553.0287750167
 20
3597.2513800422
  0
VERTEX
  8
GSLAYER
 10
3553.1025700394
 20
3598.3445902193
  0
VERTEX
  8
GSLAYER
 10
3553.0287750167
 20
3599.475556478
  0
VERTEX
  8
GSLAYER
 10
3552.8073899485
 20
3600.5893608814
  0
VERTEX
  8
GSLAYER
 10
3552.4384148349
 20
3601.6860034297
  0
VERTEX
  8
GSLAYER
 10
3551.9218496759
 20
3602.7654841227
  0
VERTEX
  8
GSLAYER
 10
3551.6069337068
 20
3603.273475037
  0
VERTEX
  8
GSLAYER
 10
3551.266275288
 20
3603.754006983
  0
VERTEX
  8
GSLAYER
 10
3550.8998744194
 20
3604.2070799607
  0
VERTEX
  8
GSLAYER
 10
3550.507731101
 20
3604.63269397
  0
VERTEX
  8
GSLAYER
 10
3550.0881291694
 20
3605.02741664
  0
VERTEX
  8
GSLAYER
 10
3549.6393524615
 20
3605.3878155995
  0
VERTEX
  8
GSLAYER
 10
3549.1614009772
 20
3605.7138908486
  0
VERTEX
  8
GSLAYER
 10
3548.6542747164
 20
3606.0056423872
  0
VERTEX
  8
GSLAYER
 10
3547.5696594987
 20
3606.4981876319
  0
VERTEX
  8
GSLAYER
 10
3546.4850442811
 20
3606.8500056638
  0
VERTEX
  8
GSLAYER
 10
3545.4004290634
 20
3607.0610964829
  0
VERTEX
  8
GSLAYER
 10
3544.3158138458
 20
3607.1314600893
  0
SEQEND
  0
POLYLINE
  8
GSLAYER
 70
128
 66
1
  0
VERTEX
  8
GSLAYER
 10
3544.7276930424
 20
3597.9327056942
  0
VERTEX
  8
GSLAYER
 10
3552.2788116462
 20
3597.9327056942
  0
VERTEX
  8
GSLAYER
 10
3552.2788116462
 20
3597.8777877575
  0
VERTEX
  8
GSLAYER
 10
3552.1844226637
 20
3596.9888036574
  0
VERTEX
  8
GSLAYER
 10
3551.9836315553
 20
3596.1066842993
  0
VERTEX
  8
GSLAYER
 10
3551.6764383212
 20
3595.2314296834
  0
VERTEX
  8
GSLAYER
 10
3551.2628429613
 20
3594.3630398095
  0
VERTEX
  8
GSLAYER
 10
3550.6656181263
 20
3593.4568938542
  0
VERTEX
  8
GSLAYER
 10
3549.9722881454
 20
3592.6605837722
  0
VERTEX
  8
GSLAYER
 10
3549.1828530186
 20
3591.9741095636
  0
VERTEX
  8
GSLAYER
 10
3548.297312746
 20
3591.3974712284
  0
VERTEX
  8
GSLAYER
 10
3547.4392310865
 20
3590.9838705177
  0
VERTEX
  8
GSLAYER
 10
3546.5674201204
 20
3590.6766733094
  0
VERTEX
  8
GSLAYER
 10
3545.6818798478
 20
3590.4758796033
  0
VERTEX
  8
GSLAYER
 10
3544.7826102686
 20
3590.3814893997
  0
VERTEX
  8
GSLAYER
 10
3544.7276930424
 20
3590.3814893997
  0
VERTEX
  8
GSLAYER
 10
3544.7276930424
 20
3597.9327056942
  0
SEQEND
  0
POLYLINE
  8
GSLAYER
 70
128
 66
1
  0
VERTEX
  8
GSLAYER
 10
3543.9039346492
 20
3597.9327056942
  0
VERTEX
  8
GSLAYER
 10
3543.9039346492
 20
3590.3814893997
  0
VERTEX
  8
GSLAYER
 10
3543.849017423
 20
3590.3814893997
  0
VERTEX
  8
GSLAYER
 10
3542.9600448238
 20
3590.4758796033
  0
VERTEX
  8
GSLAYER
 10
3542.0779368778
 20
3590.6766733094
  0
VERTEX
  8
GSLAYER
 10
3541.202693585
 20
3590.9838705177
  0
VERTEX
  8
GSLAYER
 10
3540.3343149456
 20
3591.3974712284
  0
VERTEX
  8
GSLAYER
 10
3539.4281807131
 20
3591.9947037899
  0
VERTEX
  8
GSLAYER
 10
3538.6318809331
 20
3592.6880427405
  0
VERTEX
  8
GSLAYER
 10
3537.9454156055
 20
3593.4774880804
  0
VERTEX
  8
GSLAYER
 10
3537.3687847303
 20
3594.3630398095
  0
VERTEX
  8
GSLAYER
 10
3536.9551893704
 20
3595.2211325702
  0
VERTEX
  8
GSLAYER
 10
3536.6479961363
 20
3596.0929548152
  0
VERTEX
  8
GSLAYER
 10
3536.4472050279
 20
3596.9785065442
  0
VERTEX
  8
GSLAYER
 10
3536.3528160454
 20
3597.8777877575
  0
VERTEX
  8
GSLAYER
 10
3536.3528160454
 20
3597.9327056942
  0
VERTEX
  8
GSLAYER
 10
3543.9039346492
 20
3597.9327056942
  0
SEQEND
  0
POLYLINE
  8
GSLAYER
 70
128
 66
1
  0
VERTEX
  8
GSLAYER
 10
3544.7276930424
 20
3598.7564747445
  0
VERTEX
  8
GSLAYER
 10
3544.7276930424
 20
3606.307691039
  0
VERTEX
  8
GSLAYER
 10
3544.7826102686
 20
3606.307691039
  0
VERTEX
  8
GSLAYER
 10
3545.6715828679
 20
3606.2133008353
  0
VERTEX
  8
GSLAYER
 10
3546.5536908139
 20
3606.0125071293
  0
VERTEX
  8
GSLAYER
 10
3547.4289341066
 20
3605.705309921
  0
VERTEX
  8
GSLAYER
 10
3548.297312746
 20
3605.2917092103
  0
VERTEX
  8
GSLAYER
 10
3549.2034469785
 20
3604.6944766488
  0
VERTEX
  8
GSLAYER
 10
3549.9997467585
 20
3604.0011376981
  0
VERTEX
  8
GSLAYER
 10
3550.6862120861
 20
3603.2116923583
  0
VERTEX
  8
GSLAYER
 10
3551.2628429613
 20
3602.3261406292
  0
VERTEX
  8
GSLAYER
 10
3551.6764383212
 20
3601.4680478684
  0
VERTEX
  8
GSLAYER
 10
3551.9836315553
 20
3600.5962256235
  0
VERTEX
  8
GSLAYER
 10
3552.1844226637
 20
3599.7106738944
  0
VERTEX
  8
GSLAYER
 10
3552.2788116462
 20
3598.8113926812
  0
VERTEX
  8
GSLAYER
 10
3552.2788116462
 20
3598.7564747445
  0
VERTEX
  8
GSLAYER
 10
3544.7276930424
 20
3598.7564747445
  0
SEQEND
  0
POLYLINE
  8
GSLAYER
 70
128
 66
1
  0
VERTEX
  8
GSLAYER
 10
3543.9039346492
 20
3598.7564747445
  0
VERTEX
  8
GSLAYER
 10
3536.3528160454
 20
3598.7564747445
  0
VERTEX
  8
GSLAYER
 10
3536.3528160454
 20
3598.8113926812
  0
VERTEX
  8
GSLAYER
 10
3536.4472050279
 20
3599.7003767813
  0
VERTEX
  8
GSLAYER
 10
3536.6479961363
 20
3600.5824961393
  0
VERTEX
  8
GSLAYER
 10
3536.9551893704
 20
3601.4577507553
  0
VERTEX
  8
GSLAYER
 10
3537.3687847303
 20
3602.3261406292
  0
VERTEX
  8
GSLAYER
 10
3537.9660095653
 20
3603.2322865845
  0
VERTEX
  8
GSLAYER
 10
3538.6593395462
 20
3604.0285966665
  0
VERTEX
  8
GSLAYER
 10
3539.448774673
 20
3604.7150708751
  0
VERTEX
  8
GSLAYER
 10
3540.3343149456
 20
3605.2917092103
  0
VERTEX
  8
GSLAYER
 10
3541.1923966051
 20
3605.705309921
  0
VERTEX
  8
GSLAYER
 10
3542.0642075712
 20
3606.0125071293
  0
VERTEX
  8
GSLAYER
 10
3542.9497478438
 20
3606.2133008353
  0
VERTEX
  8
GSLAYER
 10
3543.849017423
 20
3606.307691039
  0
VERTEX
  8
GSLAYER
 10
3543.9039346492
 20
3606.307691039
  0
VERTEX
  8
GSLAYER
 10
3543.9039346492
 20
3598.7564747445
  0
SEQEND
  0
POLYLINE
  8
GSLAYER
 70
128
 66
1
  0
VERTEX
  8
GSLAYER
 10
3761.5883306321
 20
3717.36673664
  0
VERTEX
  8
GSLAYER
 10
3760.4951345979
 20
3717.2963730336
  0
VERTEX
  8
GSLAYER
 10
3759.4122355435
 20
3717.0852822145
  0
VERTEX
  8
GSLAYER
 10
3758.3396334691
 20
3716.7334641826
  0
VERTEX
  8
GSLAYER
 10
3757.2773283746
 20
3716.2409189379
  0
VERTEX
  8
GSLAYER
 10
3756.2802374863
 20
3715.605930295
  0
VERTEX
  8
GSLAYER
 10
3755.4032780302
 20
3714.8542410366
  0
VERTEX
  8
GSLAYER
 10
3754.6464500065
 20
3713.9858511627
  0
VERTEX
  8
GSLAYER
 10
3754.0097534151
 20
3713.0007606734
  0
VERTEX
  8
GSLAYER
 10
3753.7377415291
 20
3712.474749811
  0
VERTEX
  8
GSLAYER
 10
3753.4983367461
 20
3711.9401580211
  0
VERTEX
  8
GSLAYER
 10
3753.2915390661
 20
3711.3969853036
  0
VERTEX
  8
GSLAYER
 10
3753.1173484892
 20
3710.8452316584
  0
VERTEX
  8
GSLAYER
 10
3752.9791973421
 20
3710.2866132712
  0
VERTEX
  8
GSLAYER
 10
3752.8805179512
 20
3709.7228463273
  0
VERTEX
  8
GSLAYER
 10
3752.8213103167
 20
3709.153930827
  0
VERTEX
  8
GSLAYER
 10
3752.8015744385
 20
3708.57986677
  0
VERTEX
  8
GSLAYER
 10
3752.8753694613
 20
3707.4866565929
  0
VERTEX
  8
GSLAYER
 10
3753.0967545294
 20
3706.4037435288
  0
VERTEX
  8
GSLAYER
 10
3753.465729643
 20
3705.3311275779
  0
VERTEX
  8
GSLAYER
 10
3753.982294802
 20
3704.2688087401
  0
VERTEX
  8
GSLAYER
 10
3754.6395853532
 20
3703.261407839
  0
VERTEX
  8
GSLAYER
 10
3755.4032780302
 20
3702.3810046665
  0
VERTEX
  8
GSLAYER
 10
3756.273372833
 20
3701.6275992225
  0
VERTEX
  8
GSLAYER
 10
3757.2498697615
 20
3701.0011915072
  0
VERTEX
  8
GSLAYER
 10
3757.7732995738
 20
3700.7403313079
  0
VERTEX
  8
GSLAYER
 10
3758.3001617128
 20
3700.506930077
  0
VERTEX
  8
GSLAYER
 10
3758.8304561784
 20
3700.3009878144
  0
VERTEX
  8
GSLAYER
 10
3759.3641829706
 20
3700.1225045202
  0
VERTEX
  8
GSLAYER
 10
3759.9047744161
 20
3699.9783449364
  0
VERTEX
  8
GSLAYER
 10
3760.4556628415
 20
3699.8753738051
  0
VERTEX
  8
GSLAYER
 10
3761.0168482469
 20
3699.8135911263
  0
VERTEX
  8
GSLAYER
 10
3761.5883306321
 20
3699.7929969001
  0
VERTEX
  8
GSLAYER
 10
3762.160671099
 20
3699.8135911263
  0
VERTEX
  8
GSLAYER
 10
3762.7244307493
 20
3699.8753738051
  0
VERTEX
  8
GSLAYER
 10
3763.279609583
 20
3699.9783449364
  0
VERTEX
  8
GSLAYER
 10
3763.8262076001
 20
3700.1225045202
  0
VERTEX
  8
GSLAYER
 10
3764.365940964
 20
3700.3009878144
  0
VERTEX
  8
GSLAYER
 10
3764.9005258379
 20
3700.506930077
  0
VERTEX
  8
GSLAYER
 10
3765.4299622218
 20
3700.7403313079
  0
VERTEX
  8
GSLAYER
 10
3765.9542501158
 20
3701.0011915072
  0
VERTEX
  8
GSLAYER
 10
3766.929030881
 20
3701.6275992225
  0
VERTEX
  8
GSLAYER
 10
3767.7939771938
 20
3702.3810046665
  0
VERTEX
  8
GSLAYER
 10
3768.5490890542
 20
3703.261407839
  0
VERTEX
  8
GSLAYER
 10
3769.1943664622
 20
3704.2688087401
  0
VERTEX
  8
GSLAYER
 10
3769.7109316212
 20
3705.3311275779
  0
VERTEX
  8
GSLAYER
 10
3770.0799067348
 20
3706.4037435288
  0
VERTEX
  8
GSLAYER
 10
3770.3012918029
 20
3707.4866565929
  0
VERTEX
  8
GSLAYER
 10
3770.3750868257
 20
3708.57986677
  0
VERTEX
  8
GSLAYER
 10
3770.3012918029
 20
3709.7108330287
  0
VERTEX
  8
GSLAYER
 10
3770.0799067348
 20
3710.8246374321
  0
VERTEX
  8
GSLAYER
 10
3769.7109316212
 20
3711.9212799804
  0
VERTEX
  8
GSLAYER
 10
3769.1943664622
 20
3713.0007606734
  0
VERTEX
  8
GSLAYER
 10
3768.8794504931
 20
3713.5087515877
  0
VERTEX
  8
GSLAYER
 10
3768.5387920743
 20
3713.9892835337
  0
VERTEX
  8
GSLAYER
 10
3768.1723912057
 20
3714.4423565114
  0
VERTEX
  8
GSLAYER
 10
3767.7802478872
 20
3714.8679705207
  0
VERTEX
  8
GSLAYER
 10
3767.3606459557
 20
3715.2626931907
  0
VERTEX
  8
GSLAYER
 10
3766.9118692478
 20
3715.6230921502
  0
VERTEX
  8
GSLAYER
 10
3766.4339177635
 20
3715.9491673993
  0
VERTEX
  8
GSLAYER
 10
3765.9267915027
 20
3716.2409189379
  0
VERTEX
  8
GSLAYER
 10
3764.842176285
 20
3716.7334641826
  0
VERTEX
  8
GSLAYER
 10
3763.7575610674
 20
3717.0852822145
  0
VERTEX
  8
GSLAYER
 10
3762.6729458497
 20
3717.2963730336
  0
VERTEX
  8
GSLAYER
 10
3761.5883306321
 20
3717.36673664
  0
SEQEND
  0
POLYLINE
  8
GSLAYER
 70
128
 66
1
  0
VERTEX
  8
GSLAYER
 10
3762.0002098287
 20
3708.1679822449
  0
VERTEX
  8
GSLAYER
 10
3769.5513284325
 20
3708.1679822449
  0
VERTEX
  8
GSLAYER
 10
3769.5513284325
 20
3708.1130643082
  0
VERTEX
  8
GSLAYER
 10
3769.45693945
 20
3707.2240802081
  0
VERTEX
  8
GSLAYER
 10
3769.2561483416
 20
3706.34196085
  0
VERTEX
  8
GSLAYER
 10
3768.9489551075
 20
3705.4667062341
  0
VERTEX
  8
GSLAYER
 10
3768.5353597476
 20
3704.5983163602
  0
VERTEX
  8
GSLAYER
 10
3767.9381349126
 20
3703.6921704049
  0
VERTEX
  8
GSLAYER
 10
3767.2448049317
 20
3702.8958603229
  0
VERTEX
  8
GSLAYER
 10
3766.4553698049
 20
3702.2093861143
  0
VERTEX
  8
GSLAYER
 10
3765.5698295323
 20
3701.6327477791
  0
VERTEX
  8
GSLAYER
 10
3764.7117478728
 20
3701.2191470684
  0
VERTEX
  8
GSLAYER
 10
3763.8399369067
 20
3700.9119498601
  0
VERTEX
  8
GSLAYER
 10
3762.9543966341
 20
3700.711156154
  0
VERTEX
  8
GSLAYER
 10
3762.0551270549
 20
3700.6167659504
  0
VERTEX
  8
GSLAYER
 10
3762.0002098287
 20
3700.6167659504
  0
VERTEX
  8
GSLAYER
 10
3762.0002098287
 20
3708.1679822449
  0
SEQEND
  0
POLYLINE
  8
GSLAYER
 70
128
 66
1
  0
VERTEX
  8
GSLAYER
 10
3761.1764514355
 20
3708.1679822449
  0
VERTEX
  8
GSLAYER
 10
3761.1764514355
 20
3700.6167659504
  0
VERTEX
  8
GSLAYER
 10
3761.1215342093
 20
3700.6167659504
  0
VERTEX
  8
GSLAYER
 10
3760.23256161
 20
3700.711156154
  0
VERTEX
  8
GSLAYER
 10
3759.350453664
 20
3700.9119498601
  0
VERTEX
  8
GSLAYER
 10
3758.4752103713
 20
3701.2191470684
  0
VERTEX
  8
GSLAYER
 10
3757.6068317319
 20
3701.6327477791
  0
VERTEX
  8
GSLAYER
 10
3756.7006974994
 20
3702.2299803406
  0
VERTEX
  8
GSLAYER
 10
3755.9043977194
 20
3702.9233192912
  0
VERTEX
  8
GSLAYER
 10
3755.2179323918
 20
3703.7127646311
  0
VERTEX
  8
GSLAYER
 10
3754.6413015166
 20
3704.5983163602
  0
VERTEX
  8
GSLAYER
 10
3754.2277061567
 20
3705.4564091209
  0
VERTEX
  8
GSLAYER
 10
3753.9205129226
 20
3706.3282313659
  0
VERTEX
  8
GSLAYER
 10
3753.7197218142
 20
3707.2137830949
  0
VERTEX
  8
GSLAYER
 10
3753.6253328317
 20
3708.1130643082
  0
VERTEX
  8
GSLAYER
 10
3753.6253328317
 20
3708.1679822449
  0
VERTEX
  8
GSLAYER
 10
3761.1764514355
 20
3708.1679822449
  0
SEQEND
  0
POLYLINE
  8
GSLAYER
 70
128
 66
1
  0
VERTEX
  8
GSLAYER
 10
3762.0002098287
 20
3708.9917512952
  0
VERTEX
  8
GSLAYER
 10
3762.0002098287
 20
3716.5429675897
  0
VERTEX
  8
GSLAYER
 10
3762.0551270549
 20
3716.5429675897
  0
VERTEX
  8
GSLAYER
 10
3762.9440996542
 20
3716.448577386
  0
VERTEX
  8
GSLAYER
 10
3763.8262076001
 20
3716.24778368
  0
VERTEX
  8
GSLAYER
 10
3764.7014508929
 20
3715.9405864717
  0
VERTEX
  8
GSLAYER
 10
3765.5698295323
 20
3715.526985761
  0
VERTEX
  8
GSLAYER
 10
3766.4759637648
 20
3714.9297531995
  0
VERTEX
  8
GSLAYER
 10
3767.2722635448
 20
3714.2364142488
  0
VERTEX
  8
GSLAYER
 10
3767.9587288724
 20
3713.446968909
  0
VERTEX
  8
GSLAYER
 10
3768.5353597476
 20
3712.5614171799
  0
VERTEX
  8
GSLAYER
 10
3768.9489551075
 20
3711.7033244191
  0
VERTEX
  8
GSLAYER
 10
3769.2561483416
 20
3710.8315021742
  0
VERTEX
  8
GSLAYER
 10
3769.45693945
 20
3709.9459504451
  0
VERTEX
  8
GSLAYER
 10
3769.5513284325
 20
3709.0466692319
  0
VERTEX
  8
GSLAYER
 10
3769.5513284325
 20
3708.9917512952
  0
VERTEX
  8
GSLAYER
 10
3762.0002098287
 20
3708.9917512952
  0
SEQEND
  0
POLYLINE
  8
GSLAYER
 70
128
 66
1
  0
VERTEX
  8
GSLAYER
 10
3761.1764514355
 20
3708.9917512952
  0
VERTEX
  8
GSLAYER
 10
3753.6253328317
 20
3708.9917512952
  0
VERTEX
  8
GSLAYER
 10
3753.6253328317
 20
3709.0466692319
  0
VERTEX
  8
GSLAYER
 10
3753.7197218142
 20
3709.935653332
  0
VERTEX
  8
GSLAYER
 10
3753.9205129226
 20
3710.8177726901
  0
VERTEX
  8
GSLAYER
 10
3754.2277061567
 20
3711.693027306
  0
VERTEX
  8
GSLAYER
 10
3754.6413015166
 20
3712.5614171799
  0
VERTEX
  8
GSLAYER
 10
3755.2385263516
 20
3713.4675631352
  0
VERTEX
  8
GSLAYER
 10
3755.9318563325
 20
3714.2638732172
  0
VERTEX
  8
GSLAYER
 10
3756.7212914593
 20
3714.9503474258
  0
VERTEX
  8
GSLAYER
 10
3757.6068317319
 20
3715.526985761
  0
VERTEX
  8
GSLAYER
 10
3758.4649133914
 20
3715.9405864717
  0
VERTEX
  8
GSLAYER
 10
3759.3367243575
 20
3716.24778368
  0
VERTEX
  8
GSLAYER
 10
3760.2222646301
 20
3716.448577386
  0
VERTEX
  8
GSLAYER
 10
3761.1215342093
 20
3716.5429675897
  0
VERTEX
  8
GSLAYER
 10
3761.1764514355
 20
3716.5429675897
  0
VERTEX
  8
GSLAYER
 10
3761.1764514355
 20
3708.9917512952
  0
SEQEND
  0
POLYLINE
  8
GSLAYER
 70
128
 66
1
  0
VERTEX
  8
GSLAYER
 10
3946.9090067145
 20
3632.6932633475
  0
VERTEX
  8
GSLAYER
 10
3945.8158106803
 20
3632.6228997411
  0
VERTEX
  8
GSLAYER
 10
3944.732911626
 20
3632.4118089219
  0
VERTEX
  8
GSLAYER
 10
3943.6603095516
 20
3632.05999089
  0
VERTEX
  8
GSLAYER
 10
3942.5980044571
 20
3631.5674456454
  0
VERTEX
  8
GSLAYER
 10
3941.6009135687
 20
3630.9324570024
  0
VERTEX
  8
GSLAYER
 10
3940.7239541126
 20
3630.180767744
  0
VERTEX
  8
GSLAYER
 10
3939.9671260889
 20
3629.3123778701
  0
VERTEX
  8
GSLAYER
 10
3939.3304294976
 20
3628.3272873808
  0
VERTEX
  8
GSLAYER
 10
3939.0584176115
 20
3627.8012765185
  0
VERTEX
  8
GSLAYER
 10
3938.8190128285
 20
3627.2666847285
  0
VERTEX
  8
GSLAYER
 10
3938.6122151485
 20
3626.723512011
  0
VERTEX
  8
GSLAYER
 10
3938.4380245717
 20
3626.1717583658
  0
VERTEX
  8
GSLAYER
 10
3938.2998734245
 20
3625.6131399786
  0
VERTEX
  8
GSLAYER
 10
3938.2011940336
 20
3625.0493730348
  0
VERTEX
  8
GSLAYER
 10
3938.1419863991
 20
3624.4804575344
  0
VERTEX
  8
GSLAYER
 10
3938.122250521
 20
3623.9063934775
  0
VERTEX
  8
GSLAYER
 10
3938.1960455437
 20
3622.8131833003
  0
VERTEX
  8
GSLAYER
 10
3938.4174306118
 20
3621.7302702362
  0
VERTEX
  8
GSLAYER
 10
3938.7864057254
 20
3620.6576542853
  0
VERTEX
  8
GSLAYER
 10
3939.3029708845
 20
3619.5953354475
  0
VERTEX
  8
GSLAYER
 10
3939.9602614357
 20
3618.5879345464
  0
VERTEX
  8
GSLAYER
 10
3940.7239541126
 20
3617.7075313739
  0
VERTEX
  8
GSLAYER
 10
3941.5940489154
 20
3616.9541259299
  0
VERTEX
  8
GSLAYER
 10
3942.5705458439
 20
3616.3277182146
  0
VERTEX
  8
GSLAYER
 10
3943.0939756563
 20
3616.0668580153
  0
VERTEX
  8
GSLAYER
 10
3943.6208377952
 20
3615.8334567844
  0
VERTEX
  8
GSLAYER
 10
3944.1511322608
 20
3615.6275145218
  0
VERTEX
  8
GSLAYER
 10
3944.684859053
 20
3615.4490312276
  0
VERTEX
  8
GSLAYER
 10
3945.2254504985
 20
3615.3048716438
  0
VERTEX
  8
GSLAYER
 10
3945.7763389239
 20
3615.2019005125
  0
VERTEX
  8
GSLAYER
 10
3946.3375243293
 20
3615.1401178337
  0
VERTEX
  8
GSLAYER
 10
3946.9090067145
 20
3615.1195236075
  0
VERTEX
  8
GSLAYER
 10
3947.4813471814
 20
3615.1401178337
  0
VERTEX
  8
GSLAYER
 10
3948.0451068317
 20
3615.2019005125
  0
VERTEX
  8
GSLAYER
 10
3948.6002856655
 20
3615.3048716438
  0
VERTEX
  8
GSLAYER
 10
3949.1468836826
 20
3615.4490312276
  0
VERTEX
  8
GSLAYER
 10
3949.6866170464
 20
3615.6275145218
  0
VERTEX
  8
GSLAYER
 10
3950.2212019203
 20
3615.8334567844
  0
VERTEX
  8
GSLAYER
 10
3950.7506383042
 20
3616.0668580153
  0
VERTEX
  8
GSLAYER
 10
3951.2749261982
 20
3616.3277182146
  0
VERTEX
  8
GSLAYER
 10
3952.2497069634
 20
3616.9541259299
  0
VERTEX
  8
GSLAYER
 10
3953.1146532762
 20
3617.7075313739
  0
VERTEX
  8
GSLAYER
 10
3953.8697651366
 20
3618.5879345464
  0
VERTEX
  8
GSLAYER
 10
3954.5150425446
 20
3619.5953354475
  0
VERTEX
  8
GSLAYER
 10
3955.0316077036
 20
3620.6576542853
  0
VERTEX
  8
GSLAYER
 10
3955.4005828172
 20
3621.7302702362
  0
VERTEX
  8
GSLAYER
 10
3955.6219678854
 20
3622.8131833003
  0
VERTEX
  8
GSLAYER
 10
3955.6957629081
 20
3623.9063934775
  0
VERTEX
  8
GSLAYER
 10
3955.6219678854
 20
3625.0373597361
  0
VERTEX
  8
GSLAYER
 10
3955.4005828172
 20
3626.1511641396
  0
VERTEX
  8
GSLAYER
 10
3955.0316077036
 20
3627.2478066878
  0
VERTEX
  8
GSLAYER
 10
3954.5150425446
 20
3628.3272873808
  0
VERTEX
  8
GSLAYER
 10
3954.2001265755
 20
3628.8352782952
  0
VERTEX
  8
GSLAYER
 10
3953.8594681567
 20
3629.3158102412
  0
VERTEX
  8
GSLAYER
 10
3953.4930672881
 20
3629.7688832188
  0
VERTEX
  8
GSLAYER
 10
3953.1009239697
 20
3630.1944972282
  0
VERTEX
  8
GSLAYER
 10
3952.6813220382
 20
3630.5892198981
  0
VERTEX
  8
GSLAYER
 10
3952.2325453302
 20
3630.9496188576
  0
VERTEX
  8
GSLAYER
 10
3951.7545938459
 20
3631.2756941067
  0
VERTEX
  8
GSLAYER
 10
3951.2474675851
 20
3631.5674456454
  0
VERTEX
  8
GSLAYER
 10
3950.1628523675
 20
3632.05999089
  0
VERTEX
  8
GSLAYER
 10
3949.0782371498
 20
3632.4118089219
  0
VERTEX
  8
GSLAYER
 10
3947.9936219322
 20
3632.6228997411
  0
VERTEX
  8
GSLAYER
 10
3946.9090067145
 20
3632.6932633475
  0
SEQEND
  0
POLYLINE
  8
GSLAYER
 70
128
 66
1
  0
VERTEX
  8
GSLAYER
 10
3947.3208859111
 20
3623.4945089523
  0
VERTEX
  8
GSLAYER
 10
3954.8720045149
 20
3623.4945089523
  0
VERTEX
  8
GSLAYER
 10
3954.8720045149
 20
3623.4395910156
  0
VERTEX
  8
GSLAYER
 10
3954.7776155324
 20
3622.5506069155
  0
VERTEX
  8
GSLAYER
 10
3954.5768244241
 20
3621.6684875575
  0
VERTEX
  8
GSLAYER
 10
3954.2696311899
 20
3620.7932329415
  0
VERTEX
  8
GSLAYER
 10
3953.8560358301
 20
3619.9248430676
  0
VERTEX
  8
GSLAYER
 10
3953.258810995
 20
3619.0186971123
  0
VERTEX
  8
GSLAYER
 10
3952.5654810141
 20
3618.2223870303
  0
VERTEX
  8
GSLAYER
 10
3951.7760458874
 20
3617.5359128217
  0
VERTEX
  8
GSLAYER
 10
3950.8905056147
 20
3616.9592744865
  0
VERTEX
  8
GSLAYER
 10
3950.0324239552
 20
3616.5456737758
  0
VERTEX
  8
GSLAYER
 10
3949.1606129891
 20
3616.2384765675
  0
VERTEX
  8
GSLAYER
 10
3948.2750727165
 20
3616.0376828615
  0
VERTEX
  8
GSLAYER
 10
3947.3758031373
 20
3615.9432926578
  0
VERTEX
  8
GSLAYER
 10
3947.3208859111
 20
3615.9432926578
  0
VERTEX
  8
GSLAYER
 10
3947.3208859111
 20
3623.4945089523
  0
SEQEND
  0
POLYLINE
  8
GSLAYER
 70
128
 66
1
  0
VERTEX
  8
GSLAYER
 10
3946.4971275179
 20
3623.4945089523
  0
VERTEX
  8
GSLAYER
 10
3946.4971275179
 20
3615.9432926578
  0
VERTEX
  8
GSLAYER
 10
3946.4422102917
 20
3615.9432926578
  0
VERTEX
  8
GSLAYER
 10
3945.5532376925
 20
3616.0376828615
  0
VERTEX
  8
GSLAYER
 10
3944.6711297465
 20
3616.2384765675
  0
VERTEX
  8
GSLAYER
 10
3943.7958864538
 20
3616.5456737758
  0
VERTEX
  8
GSLAYER
 10
3942.9275078143
 20
3616.9592744865
  0
VERTEX
  8
GSLAYER
 10
3942.0213735819
 20
3617.556507048
  0
VERTEX
  8
GSLAYER
 10
3941.2250738018
 20
3618.2498459987
  0
VERTEX
  8
GSLAYER
 10
3940.5386084742
 20
3619.0392913385
  0
VERTEX
  8
GSLAYER
 10
3939.961977599
 20
3619.9248430676
  0
VERTEX
  8
GSLAYER
 10
3939.5483822391
 20
3620.7829358284
  0
VERTEX
  8
GSLAYER
 10
3939.241189005
 20
3621.6547580733
  0
VERTEX
  8
GSLAYER
 10
3939.0403978967
 20
3622.5403098024
  0
VERTEX
  8
GSLAYER
 10
3938.9460089141
 20
3623.4395910156
  0
VERTEX
  8
GSLAYER
 10
3938.9460089141
 20
3623.4945089523
  0
VERTEX
  8
GSLAYER
 10
3946.4971275179
 20
3623.4945089523
  0
SEQEND
  0
POLYLINE
  8
GSLAYER
 70
128
 66
1
  0
VERTEX
  8
GSLAYER
 10
3947.3208859111
 20
3624.3182780026
  0
VERTEX
  8
GSLAYER
 10
3947.3208859111
 20
3631.8694942971
  0
VERTEX
  8
GSLAYER
 10
3947.3758031373
 20
3631.8694942971
  0
VERTEX
  8
GSLAYER
 10
3948.2647757366
 20
3631.7751040935
  0
VERTEX
  8
GSLAYER
 10
3949.1468836826
 20
3631.5743103874
  0
VERTEX
  8
GSLAYER
 10
3950.0221269753
 20
3631.2671131791
  0
VERTEX
  8
GSLAYER
 10
3950.8905056147
 20
3630.8535124684
  0
VERTEX
  8
GSLAYER
 10
3951.7966398472
 20
3630.256279907
  0
VERTEX
  8
GSLAYER
 10
3952.5929396272
 20
3629.5629409563
  0
VERTEX
  8
GSLAYER
 10
3953.2794049549
 20
3628.7734956164
  0
VERTEX
  8
GSLAYER
 10
3953.8560358301
 20
3627.8879438873
  0
VERTEX
  8
GSLAYER
 10
3954.2696311899
 20
3627.0298511266
  0
VERTEX
  8
GSLAYER
 10
3954.5768244241
 20
3626.1580288817
  0
VERTEX
  8
GSLAYER
 10
3954.7776155324
 20
3625.2724771526
  0
VERTEX
  8
GSLAYER
 10
3954.8720045149
 20
3624.3731959393
  0
VERTEX
  8
GSLAYER
 10
3954.8720045149
 20
3624.3182780026
  0
VERTEX
  8
GSLAYER
 10
3947.3208859111
 20
3624.3182780026
  0
SEQEND
  0
POLYLINE
  8
GSLAYER
 70
128
 66
1
  0
VERTEX
  8
GSLAYER
 10
3946.4971275179
 20
3624.3182780026
  0
VERTEX
  8
GSLAYER
 10
3938.9460089141
 20
3624.3182780026
  0
VERTEX
  8
GSLAYER
 10
3938.9460089141
 20
3624.3731959393
  0
VERTEX
  8
GSLAYER
 10
3939.0403978967
 20
3625.2621800394
  0
VERTEX
  8
GSLAYER
 10
3939.241189005
 20
3626.1442993975
  0
VERTEX
  8
GSLAYER
 10
3939.5483822391
 20
3627.0195540134
  0
VERTEX
  8
GSLAYER
 10
3939.961977599
 20
3627.8879438873
  0
VERTEX
  8
GSLAYER
 10
3940.559202434
 20
3628.7940898426
  0
VERTEX
  8
GSLAYER
 10
3941.2525324149
 20
3629.5903999246
  0
VERTEX
  8
GSLAYER
 10
3942.0419675417
 20
3630.2768741332
  0
VERTEX
  8
GSLAYER
 10
3942.9275078143
 20
3630.8535124684
  0
VERTEX
  8
GSLAYER
 10
3943.7855894738
 20
3631.2671131791
  0
VERTEX
  8
GSLAYER
 10
3944.6574004399
 20
3631.5743103874
  0
VERTEX
  8
GSLAYER
 10
3945.5429407126
 20
3631.7751040935
  0
VERTEX
  8
GSLAYER
 10
3946.4422102917
 20
3631.8694942971
  0
VERTEX
  8
GSLAYER
 10
3946.4971275179
 20
3631.8694942971
  0
VERTEX
  8
GSLAYER
 10
3946.4971275179
 20
3624.3182780026
  0
SEQEND
  0
POLYLINE
  8
GSLAYER
 70
128
 66
1
  0
VERTEX
  8
GSLAYER
 10
4138.6200509377
 20
3980.9728327395
  0
VERTEX
  8
GSLAYER
 10
4137.5268549035
 20
3980.9024691332
  0
VERTEX
  8
GSLAYER
 10
4136.4439558492
 20
3980.691378314
  0
VERTEX
  8
GSLAYER
 10
4135.3713537747
 20
3980.3395602821
  0
VERTEX
  8
GSLAYER
 10
4134.3090486803
 20
3979.8470150374
  0
VERTEX
  8
GSLAYER
 10
4133.3119577919
 20
3979.2120263945
  0
VERTEX
  8
GSLAYER
 10
4132.4349983358
 20
3978.4603371361
  0
VERTEX
  8
GSLAYER
 10
4131.6781703121
 20
3977.5919472622
  0
VERTEX
  8
GSLAYER
 10
4131.0414737208
 20
3976.6068567729
  0
VERTEX
  8
GSLAYER
 10
4130.7694618347
 20
3976.0808459106
  0
VERTEX
  8
GSLAYER
 10
4130.5300570517
 20
3975.5462541206
  0
VERTEX
  8
GSLAYER
 10
4130.3232593717
 20
3975.0030814031
  0
VERTEX
  8
GSLAYER
 10
4130.1490687949
 20
3974.4513277579
  0
VERTEX
  8
GSLAYER
 10
4130.0109176477
 20
3973.8927093707
  0
VERTEX
  8
GSLAYER
 10
4129.9122382568
 20
3973.3289424269
  0
VERTEX
  8
GSLAYER
 10
4129.8530306223
 20
3972.7600269265
  0
VERTEX
  8
GSLAYER
 10
4129.8332947442
 20
3972.1859628696
  0
VERTEX
  8
GSLAYER
 10
4129.9070897669
 20
3971.0927526924
  0
VERTEX
  8
GSLAYER
 10
4130.128474835
 20
3970.0098396283
  0
VERTEX
  8
GSLAYER
 10
4130.4974499486
 20
3968.9372236774
  0
VERTEX
  8
GSLAYER
 10
4131.0140151077
 20
3967.8749048396
  0
VERTEX
  8
GSLAYER
 10
4131.6713056589
 20
3966.8675039385
  0
VERTEX
  8
GSLAYER
 10
4132.4349983358
 20
3965.987100766
  0
VERTEX
  8
GSLAYER
 10
4133.3050931386
 20
3965.233695322
  0
VERTEX
  8
GSLAYER
 10
4134.2815900671
 20
3964.6072876067
  0
VERTEX
  8
GSLAYER
 10
4134.8050198795
 20
3964.3464274074
  0
VERTEX
  8
GSLAYER
 10
4135.3318820184
 20
3964.1130261765
  0
VERTEX
  8
GSLAYER
 10
4135.862176484
 20
3963.9070839139
  0
VERTEX
  8
GSLAYER
 10
4136.3959032762
 20
3963.7286006197
  0
VERTEX
  8
GSLAYER
 10
4136.9364947217
 20
3963.5844410359
  0
VERTEX
  8
GSLAYER
 10
4137.4873831471
 20
3963.4814699046
  0
VERTEX
  8
GSLAYER
 10
4138.0485685525
 20
3963.4196872258
  0
VERTEX
  8
GSLAYER
 10
4138.6200509377
 20
3963.3990929996
  0
VERTEX
  8
GSLAYER
 10
4139.1923914046
 20
3963.4196872258
  0
VERTEX
  8
GSLAYER
 10
4139.7561510549
 20
3963.4814699046
  0
VERTEX
  8
GSLAYER
 10
4140.3113298886
 20
3963.5844410359
  0
VERTEX
  8
GSLAYER
 10
4140.8579279058
 20
3963.7286006197
  0
VERTEX
  8
GSLAYER
 10
4141.3976612696
 20
3963.9070839139
  0
VERTEX
  8
GSLAYER
 10
4141.9322461435
 20
3964.1130261765
  0
VERTEX
  8
GSLAYER
 10
4142.4616825274
 20
3964.3464274074
  0
VERTEX
  8
GSLAYER
 10
4142.9859704214
 20
3964.6072876067
  0
VERTEX
  8
GSLAYER
 10
4143.9607511866
 20
3965.233695322
  0
VERTEX
  8
GSLAYER
 10
4144.8256974994
 20
3965.987100766
  0
VERTEX
  8
GSLAYER
 10
4145.5808093598
 20
3966.8675039385
  0
VERTEX
  8
GSLAYER
 10
4146.2260867678
 20
3967.8749048396
  0
VERTEX
  8
GSLAYER
 10
4146.7426519268
 20
3968.9372236774
  0
VERTEX
  8
GSLAYER
 10
4147.1116270404
 20
3970.0098396283
  0
VERTEX
  8
GSLAYER
 10
4147.3330121086
 20
3971.0927526924
  0
VERTEX
  8
GSLAYER
 10
4147.4068071313
 20
3972.1859628696
  0
VERTEX
  8
GSLAYER
 10
4147.3330121086
 20
3973.3169291282
  0
VERTEX
  8
GSLAYER
 10
4147.1116270404
 20
3974.4307335317
  0
VERTEX
  8
GSLAYER
 10
4146.7426519268
 20
3975.5273760799
  0
VERTEX
  8
GSLAYER
 10
4146.2260867678
 20
3976.6068567729
  0
VERTEX
  8
GSLAYER
 10
4145.9111707987
 20
3977.1148476872
  0
VERTEX
  8
GSLAYER
 10
4145.5705123799
 20
3977.5953796333
  0
VERTEX
  8
GSLAYER
 10
4145.2041115113
 20
3978.0484526109
  0
VERTEX
  8
GSLAYER
 10
4144.8119681929
 20
3978.4740666203
  0
VERTEX
  8
GSLAYER
 10
4144.3923662614
 20
3978.8687892902
  0
VERTEX
  8
GSLAYER
 10
4143.9435895534
 20
3979.2291882497
  0
VERTEX
  8
GSLAYER
 10
4143.4656380691
 20
3979.5552634988
  0
VERTEX
  8
GSLAYER
 10
4142.9585118083
 20
3979.8470150374
  0
VERTEX
  8
GSLAYER
 10
4141.8738965906
 20
3980.3395602821
  0
VERTEX
  8
GSLAYER
 10
4140.789281373
 20
3980.691378314
  0
VERTEX
  8
GSLAYER
 10
4139.7046661554
 20
3980.9024691332
  0
VERTEX
  8
GSLAYER
 10
4138.6200509377
 20
3980.9728327395
  0
SEQEND
  0
POLYLINE
  8
GSLAYER
 70
128
 66
1
  0
VERTEX
  8
GSLAYER
 10
4139.0319301343
 20
3971.7740783444
  0
VERTEX
  8
GSLAYER
 10
4146.5830487381
 20
3971.7740783444
  0
VERTEX
  8
GSLAYER
 10
4146.5830487381
 20
3971.7191604077
  0
VERTEX
  8
GSLAYER
 10
4146.4886597556
 20
3970.8301763076
  0
VERTEX
  8
GSLAYER
 10
4146.2878686473
 20
3969.9480569495
  0
VERTEX
  8
GSLAYER
 10
4145.9806754131
 20
3969.0728023336
  0
VERTEX
  8
GSLAYER
 10
4145.5670800533
 20
3968.2044124597
  0
VERTEX
  8
GSLAYER
 10
4144.9698552182
 20
3967.2982665044
  0
VERTEX
  8
GSLAYER
 10
4144.2765252373
 20
3966.5019564224
  0
VERTEX
  8
GSLAYER
 10
4143.4870901106
 20
3965.8154822138
  0
VERTEX
  8
GSLAYER
 10
4142.6015498379
 20
3965.2388438786
  0
VERTEX
  8
GSLAYER
 10
4141.7434681784
 20
3964.8252431679
  0
VERTEX
  8
GSLAYER
 10
4140.8716572123
 20
3964.5180459596
  0
VERTEX
  8
GSLAYER
 10
4139.9861169397
 20
3964.3172522536
  0
VERTEX
  8
GSLAYER
 10
4139.0868473605
 20
3964.2228620499
  0
VERTEX
  8
GSLAYER
 10
4139.0319301343
 20
3964.2228620499
  0
VERTEX
  8
GSLAYER
 10
4139.0319301343
 20
3971.7740783444
  0
SEQEND
  0
POLYLINE
  8
GSLAYER
 70
128
 66
1
  0
VERTEX
  8
GSLAYER
 10
4138.2081717411
 20
3971.7740783444
  0
VERTEX
  8
GSLAYER
 10
4138.2081717411
 20
3964.2228620499
  0
VERTEX
  8
GSLAYER
 10
4138.1532545149
 20
3964.2228620499
  0
VERTEX
  8
GSLAYER
 10
4137.2642819157
 20
3964.3172522536
  0
VERTEX
  8
GSLAYER
 10
4136.3821739697
 20
3964.5180459596
  0
VERTEX
  8
GSLAYER
 10
4135.506930677
 20
3964.8252431679
  0
VERTEX
  8
GSLAYER
 10
4134.6385520375
 20
3965.2388438786
  0
VERTEX
  8
GSLAYER
 10
4133.732417805
 20
3965.8360764401
  0
VERTEX
  8
GSLAYER
 10
4132.936118025
 20
3966.5294153908
  0
VERTEX
  8
GSLAYER
 10
4132.2496526974
 20
3967.3188607306
  0
VERTEX
  8
GSLAYER
 10
4131.6730218222
 20
3968.2044124597
  0
VERTEX
  8
GSLAYER
 10
4131.2594264623
 20
3969.0625052205
  0
VERTEX
  8
GSLAYER
 10
4130.9522332282
 20
3969.9343274654
  0
VERTEX
  8
GSLAYER
 10
4130.7514421199
 20
3970.8198791945
  0
VERTEX
  8
GSLAYER
 10
4130.6570531373
 20
3971.7191604077
  0
VERTEX
  8
GSLAYER
 10
4130.6570531373
 20
3971.7740783444
  0
VERTEX
  8
GSLAYER
 10
4138.2081717411
 20
3971.7740783444
  0
SEQEND
  0
POLYLINE
  8
GSLAYER
 70
128
 66
1
  0
VERTEX
  8
GSLAYER
 10
4139.0319301343
 20
3972.5978473947
  0
VERTEX
  8
GSLAYER
 10
4139.0319301343
 20
3980.1490636892
  0
VERTEX
  8
GSLAYER
 10
4139.0868473605
 20
3980.1490636892
  0
VERTEX
  8
GSLAYER
 10
4139.9758199598
 20
3980.0546734855
  0
VERTEX
  8
GSLAYER
 10
4140.8579279058
 20
3979.8538797795
  0
VERTEX
  8
GSLAYER
 10
4141.7331711985
 20
3979.5466825712
  0
VERTEX
  8
GSLAYER
 10
4142.6015498379
 20
3979.1330818605
  0
VERTEX
  8
GSLAYER
 10
4143.5076840704
 20
3978.535849299
  0
VERTEX
  8
GSLAYER
 10
4144.3039838504
 20
3977.8425103484
  0
VERTEX
  8
GSLAYER
 10
4144.9904491781
 20
3977.0530650085
  0
VERTEX
  8
GSLAYER
 10
4145.5670800533
 20
3976.1675132794
  0
VERTEX
  8
GSLAYER
 10
4145.9806754131
 20
3975.3094205186
  0
VERTEX
  8
GSLAYER
 10
4146.2878686473
 20
3974.4375982737
  0
VERTEX
  8
GSLAYER
 10
4146.4886597556
 20
3973.5520465447
  0
VERTEX
  8
GSLAYER
 10
4146.5830487381
 20
3972.6527653314
  0
VERTEX
  8
GSLAYER
 10
4146.5830487381
 20
3972.5978473947
  0
VERTEX
  8
GSLAYER
 10
4139.0319301343
 20
3972.5978473947
  0
SEQEND
  0
POLYLINE
  8
GSLAYER
 70
128
 66
1
  0
VERTEX
  8
GSLAYER
 10
4138.2081717411
 20
3972.5978473947
  0
VERTEX
  8
GSLAYER
 10
4130.6570531373
 20
3972.5978473947
  0
VERTEX
  8
GSLAYER
 10
4130.6570531373
 20
3972.6527653314
  0
VERTEX
  8
GSLAYER
 10
4130.7514421199
 20
3973.5417494315
  0
VERTEX
  8
GSLAYER
 10
4130.9522332282
 20
3974.4238687896
  0
VERTEX
  8
GSLAYER
 10
4131.2594264623
 20
3975.2991234055
  0
VERTEX
  8
GSLAYER
 10
4131.6730218222
 20
3976.1675132794
  0
VERTEX
  8
GSLAYER
 10
4132.2702466572
 20
3977.0736592347
  0
VERTEX
  8
GSLAYER
 10
4132.9635766381
 20
3977.8699693167
  0
VERTEX
  8
GSLAYER
 10
4133.7530117649
 20
3978.5564435253
  0
VERTEX
  8
GSLAYER
 10
4134.6385520375
 20
3979.1330818605
  0
VERTEX
  8
GSLAYER
 10
4135.496633697
 20
3979.5466825712
  0
VERTEX
  8
GSLAYER
 10
4136.3684446631
 20
3979.8538797795
  0
VERTEX
  8
GSLAYER
 10
4137.2539849358
 20
3980.0546734855
  0
VERTEX
  8
GSLAYER
 10
4138.1532545149
 20
3980.1490636892
  0
VERTEX
  8
GSLAYER
 10
4138.2081717411
 20
3980.1490636892
  0
VERTEX
  8
GSLAYER
 10
4138.2081717411
 20
3972.5978473947
  0
SEQEND
  0
POLYLINE
  8
GSLAYER
 70
128
 66
1
  0
VERTEX
  8
GSLAYER
 10
4167.3767075712
 20
3808.4306607471
  0
VERTEX
  8
GSLAYER
 10
4166.283511537
 20
3808.3602971407
  0
VERTEX
  8
GSLAYER
 10
4165.2006124826
 20
3808.1492063216
  0
VERTEX
  8
GSLAYER
 10
4164.1280104082
 20
3807.7973882897
  0
VERTEX
  8
GSLAYER
 10
4163.0657053137
 20
3807.304843045
  0
VERTEX
  8
GSLAYER
 10
4162.0686144254
 20
3806.6698544021
  0
VERTEX
  8
GSLAYER
 10
4161.1916549693
 20
3805.9181651437
  0
VERTEX
  8
GSLAYER
 10
4160.4348269456
 20
3805.0497752698
  0
VERTEX
  8
GSLAYER
 10
4159.7981303543
 20
3804.0646847805
  0
VERTEX
  8
GSLAYER
 10
4159.5261184682
 20
3803.5386739181
  0
VERTEX
  8
GSLAYER
 10
4159.2867136852
 20
3803.0040821282
  0
VERTEX
  8
GSLAYER
 10
4159.0799160052
 20
3802.4609094107
  0
VERTEX
  8
GSLAYER
 10
4158.9057254283
 20
3801.9091557655
  0
VERTEX
  8
GSLAYER
 10
4158.7675742812
 20
3801.3505373783
  0
VERTEX
  8
GSLAYER
 10
4158.6688948903
 20
3800.7867704345
  0
VERTEX
  8
GSLAYER
 10
4158.6096872558
 20
3800.2178549341
  0
VERTEX
  8
GSLAYER
 10
4158.5899513776
 20
3799.6437908771
  0
VERTEX
  8
GSLAYER
 10
4158.6637464004
 20
3798.5505807
  0
VERTEX
  8
GSLAYER
 10
4158.8851314685
 20
3797.4676676359
  0
VERTEX
  8
GSLAYER
 10
4159.2541065821
 20
3796.395051685
  0
VERTEX
  8
GSLAYER
 10
4159.7706717411
 20
3795.3327328472
  0
VERTEX
  8
GSLAYER
 10
4160.4279622923
 20
3794.3253319461
  0
VERTEX
  8
GSLAYER
 10
4161.1916549693
 20
3793.4449287736
  0
VERTEX
  8
GSLAYER
 10
4162.0617497721
 20
3792.6915233296
  0
VERTEX
  8
GSLAYER
 10
4163.0382467006
 20
3792.0651156143
  0
VERTEX
  8
GSLAYER
 10
4163.5616765129
 20
3791.804255415
  0
VERTEX
  8
GSLAYER
 10
4164.0885386519
 20
3791.5708541841
  0
VERTEX
  8
GSLAYER
 10
4164.6188331175
 20
3791.3649119215
  0
VERTEX
  8
GSLAYER
 10
4165.1525599097
 20
3791.1864286273
  0
VERTEX
  8
GSLAYER
 10
4165.6931513552
 20
3791.0422690435
  0
VERTEX
  8
GSLAYER
 10
4166.2440397806
 20
3790.9392979122
  0
VERTEX
  8
GSLAYER
 10
4166.805225186
 20
3790.8775152334
  0
VERTEX
  8
GSLAYER
 10
4167.3767075712
 20
3790.8569210072
  0
VERTEX
  8
GSLAYER
 10
4167.9490480381
 20
3790.8775152334
  0
VERTEX
  8
GSLAYER
 10
4168.5128076884
 20
3790.9392979122
  0
VERTEX
  8
GSLAYER
 10
4169.0679865221
 20
3791.0422690435
  0
VERTEX
  8
GSLAYER
 10
4169.6145845392
 20
3791.1864286273
  0
VERTEX
  8
GSLAYER
 10
4170.1543179031
 20
3791.3649119215
  0
VERTEX
  8
GSLAYER
 10
4170.688902777
 20
3791.5708541841
  0
VERTEX
  8
GSLAYER
 10
4171.2183391609
 20
3791.804255415
  0
VERTEX
  8
GSLAYER
 10
4171.7426270549
 20
3792.0651156143
  0
VERTEX
  8
GSLAYER
 10
4172.7174078201
 20
3792.6915233296
  0
VERTEX
  8
GSLAYER
 10
4173.5823541329
 20
3793.4449287736
  0
VERTEX
  8
GSLAYER
 10
4174.3374659933
 20
3794.3253319461
  0
VERTEX
  8
GSLAYER
 10
4174.9827434013
 20
3795.3327328472
  0
VERTEX
  8
GSLAYER
 10
4175.4993085603
 20
3796.395051685
  0
VERTEX
  8
GSLAYER
 10
4175.8682836739
 20
3797.4676676359
  0
VERTEX
  8
GSLAYER
 10
4176.089668742
 20
3798.5505807
  0
VERTEX
  8
GSLAYER
 10
4176.1634637648
 20
3799.6437908771
  0
VERTEX
  8
GSLAYER
 10
4176.089668742
 20
3800.7747571358
  0
VERTEX
  8
GSLAYER
 10
4175.8682836739
 20
3801.8885615392
  0
VERTEX
  8
GSLAYER
 10
4175.4993085603
 20
3802.9852040875
  0
VERTEX
  8
GSLAYER
 10
4174.9827434013
 20
3804.0646847805
  0
VERTEX
  8
GSLAYER
 10
4174.6678274322
 20
3804.5726756948
  0
VERTEX
  8
GSLAYER
 10
4174.3271690134
 20
3805.0532076409
  0
VERTEX
  8
GSLAYER
 10
4173.9607681448
 20
3805.5062806185
  0
VERTEX
  8
GSLAYER
 10
4173.5686248264
 20
3805.9318946279
  0
VERTEX
  8
GSLAYER
 10
4173.1490228948
 20
3806.3266172978
  0
VERTEX
  8
GSLAYER
 10
4172.7002461869
 20
3806.6870162573
  0
VERTEX
  8
GSLAYER
 10
4172.2222947026
 20
3807.0130915064
  0
VERTEX
  8
GSLAYER
 10
4171.7151684418
 20
3807.304843045
  0
VERTEX
  8
GSLAYER
 10
4170.6305532241
 20
3807.7973882897
  0
VERTEX
  8
GSLAYER
 10
4169.5459380065
 20
3808.1492063216
  0
VERTEX
  8
GSLAYER
 10
4168.4613227888
 20
3808.3602971407
  0
VERTEX
  8
GSLAYER
 10
4167.3767075712
 20
3808.4306607471
  0
SEQEND
  0
POLYLINE
  8
GSLAYER
 70
128
 66
1
  0
VERTEX
  8
GSLAYER
 10
4167.7885867678
 20
3799.231906352
  0
VERTEX
  8
GSLAYER
 10
4175.3397053716
 20
3799.231906352
  0
VERTEX
  8
GSLAYER
 10
4175.3397053716
 20
3799.1769884153
  0
VERTEX
  8
GSLAYER
 10
4175.2453163891
 20
3798.2880043152
  0
VERTEX
  8
GSLAYER
 10
4175.0445252807
 20
3797.4058849571
  0
VERTEX
  8
GSLAYER
 10
4174.7373320466
 20
3796.5306303412
  0
VERTEX
  8
GSLAYER
 10
4174.3237366867
 20
3795.6622404673
  0
VERTEX
  8
GSLAYER
 10
4173.7265118517
 20
3794.756094512
  0
VERTEX
  8
GSLAYER
 10
4173.0331818708
 20
3793.95978443
  0
VERTEX
  8
GSLAYER
 10
4172.243746744
 20
3793.2733102214
  0
VERTEX
  8
GSLAYER
 10
4171.3582064714
 20
3792.6966718862
  0
VERTEX
  8
GSLAYER
 10
4170.5001248119
 20
3792.2830711755
  0
VERTEX
  8
GSLAYER
 10
4169.6283138458
 20
3791.9758739672
  0
VERTEX
  8
GSLAYER
 10
4168.7427735732
 20
3791.7750802612
  0
VERTEX
  8
GSLAYER
 10
4167.843503994
 20
3791.6806900575
  0
VERTEX
  8
GSLAYER
 10
4167.7885867678
 20
3791.6806900575
  0
VERTEX
  8
GSLAYER
 10
4167.7885867678
 20
3799.231906352
  0
SEQEND
  0
POLYLINE
  8
GSLAYER
 70
128
 66
1
  0
VERTEX
  8
GSLAYER
 10
4166.9648283746
 20
3799.231906352
  0
VERTEX
  8
GSLAYER
 10
4166.9648283746
 20
3791.6806900575
  0
VERTEX
  8
GSLAYER
 10
4166.9099111484
 20
3791.6806900575
  0
VERTEX
  8
GSLAYER
 10
4166.0209385491
 20
3791.7750802612
  0
VERTEX
  8
GSLAYER
 10
4165.1388306032
 20
3791.9758739672
  0
VERTEX
  8
GSLAYER
 10
4164.2635873104
 20
3792.2830711755
  0
VERTEX
  8
GSLAYER
 10
4163.395208671
 20
3792.6966718862
  0
VERTEX
  8
GSLAYER
 10
4162.4890744385
 20
3793.2939044477
  0
VERTEX
  8
GSLAYER
 10
4161.6927746585
 20
3793.9872433983
  0
VERTEX
  8
GSLAYER
 10
4161.0063093309
 20
3794.7766887382
  0
VERTEX
  8
GSLAYER
 10
4160.4296784557
 20
3795.6622404673
  0
VERTEX
  8
GSLAYER
 10
4160.0160830958
 20
3796.520333228
  0
VERTEX
  8
GSLAYER
 10
4159.7088898617
 20
3797.392155473
  0
VERTEX
  8
GSLAYER
 10
4159.5080987533
 20
3798.277707202
  0
VERTEX
  8
GSLAYER
 10
4159.4137097708
 20
3799.1769884153
  0
VERTEX
  8
GSLAYER
 10
4159.4137097708
 20
3799.231906352
  0
VERTEX
  8
GSLAYER
 10
4166.9648283746
 20
3799.231906352
  0
SEQEND
  0
POLYLINE
  8
GSLAYER
 70
128
 66
1
  0
VERTEX
  8
GSLAYER
 10
4167.7885867678
 20
3800.0556754023
  0
VERTEX
  8
GSLAYER
 10
4167.7885867678
 20
3807.6068916968
  0
VERTEX
  8
GSLAYER
 10
4167.843503994
 20
3807.6068916968
  0
VERTEX
  8
GSLAYER
 10
4168.7324765933
 20
3807.5125014931
  0
VERTEX
  8
GSLAYER
 10
4169.6145845392
 20
3807.3117077871
  0
VERTEX
  8
GSLAYER
 10
4170.489827832
 20
3807.0045105788
  0
VERTEX
  8
GSLAYER
 10
4171.3582064714
 20
3806.5909098681
  0
VERTEX
  8
GSLAYER
 10
4172.2643407039
 20
3805.9936773066
  0
VERTEX
  8
GSLAYER
 10
4173.0606404839
 20
3805.3003383559
  0
VERTEX
  8
GSLAYER
 10
4173.7471058115
 20
3804.5108930161
  0
VERTEX
  8
GSLAYER
 10
4174.3237366867
 20
3803.625341287
  0
VERTEX
  8
GSLAYER
 10
4174.7373320466
 20
3802.7672485262
  0
VERTEX
  8
GSLAYER
 10
4175.0445252807
 20
3801.8954262813
  0
VERTEX
  8
GSLAYER
 10
4175.2453163891
 20
3801.0098745522
  0
VERTEX
  8
GSLAYER
 10
4175.3397053716
 20
3800.110593339
  0
VERTEX
  8
GSLAYER
 10
4175.3397053716
 20
3800.0556754023
  0
VERTEX
  8
GSLAYER
 10
4167.7885867678
 20
3800.0556754023
  0
SEQEND
  0
POLYLINE
  8
GSLAYER
 70
128
 66
1
  0
VERTEX
  8
GSLAYER
 10
4166.9648283746
 20
3800.0556754023
  0
VERTEX
  8
GSLAYER
 10
4159.4137097708
 20
3800.0556754023
  0
VERTEX
  8
GSLAYER
 10
4159.4137097708
 20
3800.110593339
  0
VERTEX
  8
GSLAYER
 10
4159.5080987533
 20
3800.9995774391
  0
VERTEX
  8
GSLAYER
 10
4159.7088898617
 20
3801.8816967972
  0
VERTEX
  8
GSLAYER
 10
4160.0160830958
 20
3802.7569514131
  0
VERTEX
  8
GSLAYER
 10
4160.4296784557
 20
3803.625341287
  0
VERTEX
  8
GSLAYER
 10
4161.0269032907
 20
3804.5314872423
  0
VERTEX
  8
GSLAYER
 10
4161.7202332716
 20
3805.3277973243
  0
VERTEX
  8
GSLAYER
 10
4162.5096683984
 20
3806.0142715329
  0
VERTEX
  8
GSLAYER
 10
4163.395208671
 20
3806.5909098681
  0
VERTEX
  8
GSLAYER
 10
4164.2532903305
 20
3807.0045105788
  0
VERTEX
  8
GSLAYER
 10
4165.1251012966
 20
3807.3117077871
  0
VERTEX
  8
GSLAYER
 10
4166.0106415692
 20
3807.5125014931
  0
VERTEX
  8
GSLAYER
 10
4166.9099111484
 20
3807.6068916968
  0
VERTEX
  8
GSLAYER
 10
4166.9648283746
 20
3807.6068916968
  0
VERTEX
  8
GSLAYER
 10
4166.9648283746
 20
3800.0556754023
  0
SEQEND
  0
POLYLINE
  8
GSLAYER
 70
128
 66
1
  0
VERTEX
  8
GSLAYER
 10
4151.4007872193
 20
3693.4025460855
  0
VERTEX
  8
GSLAYER
 10
4150.307591185
 20
3693.3321824791
  0
VERTEX
  8
GSLAYER
 10
4149.2246921307
 20
3693.12109166
  0
VERTEX
  8
GSLAYER
 10
4148.1520900563
 20
3692.7692736281
  0
VERTEX
  8
GSLAYER
 10
4147.0897849618
 20
3692.2767283834
  0
VERTEX
  8
GSLAYER
 10
4146.0926940734
 20
3691.6417397405
  0
VERTEX
  8
GSLAYER
 10
4145.2157346174
 20
3690.8900504821
  0
VERTEX
  8
GSLAYER
 10
4144.4589065937
 20
3690.0216606082
  0
VERTEX
  8
GSLAYER
 10
4143.8222100023
 20
3689.0365701189
  0
VERTEX
  8
GSLAYER
 10
4143.5501981162
 20
3688.5105592565
  0
VERTEX
  8
GSLAYER
 10
4143.3107933332
 20
3687.9759674666
  0
VERTEX
  8
GSLAYER
 10
4143.1039956533
 20
3687.4327947491
  0
VERTEX
  8
GSLAYER
 10
4142.9298050764
 20
3686.8810411039
  0
VERTEX
  8
GSLAYER
 10
4142.7916539292
 20
3686.3224227167
  0
VERTEX
  8
GSLAYER
 10
4142.6929745384
 20
3685.7586557728
  0
VERTEX
  8
GSLAYER
 10
4142.6337669039
 20
3685.1897402725
  0
VERTEX
  8
GSLAYER
 10
4142.6140310257
 20
3684.6156762155
  0
VERTEX
  8
GSLAYER
 10
4142.6878260484
 20
3683.5224660384
  0
VERTEX
  8
GSLAYER
 10
4142.9092111166
 20
3682.4395529743
  0
VERTEX
  8
GSLAYER
 10
4143.2781862302
 20
3681.3669370234
  0
VERTEX
  8
GSLAYER
 10
4143.7947513892
 20
3680.3046181856
  0
VERTEX
  8
GSLAYER
 10
4144.4520419404
 20
3679.2972172845
  0
VERTEX
  8
GSLAYER
 10
4145.2157346174
 20
3678.4168141119
  0
VERTEX
  8
GSLAYER
 10
4146.0858294202
 20
3677.663408668
  0
VERTEX
  8
GSLAYER
 10
4147.0623263487
 20
3677.0370009527
  0
VERTEX
  8
GSLAYER
 10
4147.585756161
 20
3676.7761407534
  0
VERTEX
  8
GSLAYER
 10
4148.1126183
 20
3676.5427395225
  0
VERTEX
  8
GSLAYER
 10
4148.6429127655
 20
3676.3367972599
  0
VERTEX
  8
GSLAYER
 10
4149.1766395578
 20
3676.1583139657
  0
VERTEX
  8
GSLAYER
 10
4149.7172310033
 20
3676.0141543819
  0
VERTEX
  8
GSLAYER
 10
4150.2681194287
 20
3675.9111832506
  0
VERTEX
  8
GSLAYER
 10
4150.829304834
 20
3675.8494005718
  0
VERTEX
  8
GSLAYER
 10
4151.4007872193
 20
3675.8288063456
  0
VERTEX
  8
GSLAYER
 10
4151.9731276862
 20
3675.8494005718
  0
VERTEX
  8
GSLAYER
 10
4152.5368873365
 20
3675.9111832506
  0
VERTEX
  8
GSLAYER
 10
4153.0920661702
 20
3676.0141543819
  0
VERTEX
  8
GSLAYER
 10
4153.6386641873
 20
3676.1583139657
  0
VERTEX
  8
GSLAYER
 10
4154.1783975512
 20
3676.3367972599
  0
VERTEX
  8
GSLAYER
 10
4154.712982425
 20
3676.5427395225
  0
VERTEX
  8
GSLAYER
 10
4155.242418809
 20
3676.7761407534
  0
VERTEX
  8
GSLAYER
 10
4155.7667067029
 20
3677.0370009527
  0
VERTEX
  8
GSLAYER
 10
4156.7414874682
 20
3677.663408668
  0
VERTEX
  8
GSLAYER
 10
4157.606433781
 20
3678.4168141119
  0
VERTEX
  8
GSLAYER
 10
4158.3615456414
 20
3679.2972172845
  0
VERTEX
  8
GSLAYER
 10
4159.0068230493
 20
3680.3046181856
  0
VERTEX
  8
GSLAYER
 10
4159.5233882084
 20
3681.3669370234
  0
VERTEX
  8
GSLAYER
 10
4159.892363322
 20
3682.4395529743
  0
VERTEX
  8
GSLAYER
 10
4160.1137483901
 20
3683.5224660384
  0
VERTEX
  8
GSLAYER
 10
4160.1875434128
 20
3684.6156762155
  0
VERTEX
  8
GSLAYER
 10
4160.1137483901
 20
3685.7466424742
  0
VERTEX
  8
GSLAYER
 10
4159.892363322
 20
3686.8604468776
  0
VERTEX
  8
GSLAYER
 10
4159.5233882084
 20
3687.9570894259
  0
VERTEX
  8
GSLAYER
 10
4159.0068230493
 20
3689.0365701189
  0
VERTEX
  8
GSLAYER
 10
4158.6919070803
 20
3689.5445610332
  0
VERTEX
  8
GSLAYER
 10
4158.3512486614
 20
3690.0250929792
  0
VERTEX
  8
GSLAYER
 10
4157.9848477928
 20
3690.4781659569
  0
VERTEX
  8
GSLAYER
 10
4157.5927044744
 20
3690.9037799662
  0
VERTEX
  8
GSLAYER
 10
4157.1731025429
 20
3691.2985026362
  0
VERTEX
  8
GSLAYER
 10
4156.724325835
 20
3691.6589015957
  0
VERTEX
  8
GSLAYER
 10
4156.2463743506
 20
3691.9849768448
  0
VERTEX
  8
GSLAYER
 10
4155.7392480898
 20
3692.2767283834
  0
VERTEX
  8
GSLAYER
 10
4154.6546328722
 20
3692.7692736281
  0
VERTEX
  8
GSLAYER
 10
4153.5700176546
 20
3693.12109166
  0
VERTEX
  8
GSLAYER
 10
4152.4854024369
 20
3693.3321824791
  0
VERTEX
  8
GSLAYER
 10
4151.4007872193
 20
3693.4025460855
  0
SEQEND
  0
POLYLINE
  8
GSLAYER
 70
128
 66
1
  0
VERTEX
  8
GSLAYER
 10
4151.8126664158
 20
3684.2037916904
  0
VERTEX
  8
GSLAYER
 10
4159.3637850197
 20
3684.2037916904
  0
VERTEX
  8
GSLAYER
 10
4159.3637850197
 20
3684.1488737537
  0
VERTEX
  8
GSLAYER
 10
4159.2693960371
 20
3683.2598896536
  0
VERTEX
  8
GSLAYER
 10
4159.0686049288
 20
3682.3777702955
  0
VERTEX
  8
GSLAYER
 10
4158.7614116947
 20
3681.5025156796
  0
VERTEX
  8
GSLAYER
 10
4158.3478163348
 20
3680.6341258057
  0
VERTEX
  8
GSLAYER
 10
4157.7505914998
 20
3679.7279798504
  0
VERTEX
  8
GSLAYER
 10
4157.0572615189
 20
3678.9316697684
  0
VERTEX
  8
GSLAYER
 10
4156.2678263921
 20
3678.2451955598
  0
VERTEX
  8
GSLAYER
 10
4155.3822861195
 20
3677.6685572246
  0
VERTEX
  8
GSLAYER
 10
4154.5242044599
 20
3677.2549565139
  0
VERTEX
  8
GSLAYER
 10
4153.6523934939
 20
3676.9477593056
  0
VERTEX
  8
GSLAYER
 10
4152.7668532212
 20
3676.7469655995
  0
VERTEX
  8
GSLAYER
 10
4151.867583642
 20
3676.6525753959
  0
VERTEX
  8
GSLAYER
 10
4151.8126664158
 20
3676.6525753959
  0
VERTEX
  8
GSLAYER
 10
4151.8126664158
 20
3684.2037916904
  0
SEQEND
  0
POLYLINE
  8
GSLAYER
 70
128
 66
1
  0
VERTEX
  8
GSLAYER
 10
4150.9889080227
 20
3684.2037916904
  0
VERTEX
  8
GSLAYER
 10
4150.9889080227
 20
3676.6525753959
  0
VERTEX
  8
GSLAYER
 10
4150.9339907965
 20
3676.6525753959
  0
VERTEX
  8
GSLAYER
 10
4150.0450181972
 20
3676.7469655995
  0
VERTEX
  8
GSLAYER
 10
4149.1629102512
 20
3676.9477593056
  0
VERTEX
  8
GSLAYER
 10
4148.2876669585
 20
3677.2549565139
  0
VERTEX
  8
GSLAYER
 10
4147.4192883191
 20
3677.6685572246
  0
VERTEX
  8
GSLAYER
 10
4146.5131540866
 20
3678.2657897861
  0
VERTEX
  8
GSLAYER
 10
4145.7168543066
 20
3678.9591287367
  0
VERTEX
  8
GSLAYER
 10
4145.0303889789
 20
3679.7485740766
  0
VERTEX
  8
GSLAYER
 10
4144.4537581037
 20
3680.6341258057
  0
VERTEX
  8
GSLAYER
 10
4144.0401627438
 20
3681.4922185664
  0
VERTEX
  8
GSLAYER
 10
4143.7329695097
 20
3682.3640408114
  0
VERTEX
  8
GSLAYER
 10
4143.5321784014
 20
3683.2495925404
  0
VERTEX
  8
GSLAYER
 10
4143.4377894188
 20
3684.1488737537
  0
VERTEX
  8
GSLAYER
 10
4143.4377894188
 20
3684.2037916904
  0
VERTEX
  8
GSLAYER
 10
4150.9889080227
 20
3684.2037916904
  0
SEQEND
  0
POLYLINE
  8
GSLAYER
 70
128
 66
1
  0
VERTEX
  8
GSLAYER
 10
4151.8126664158
 20
3685.0275607407
  0
VERTEX
  8
GSLAYER
 10
4151.8126664158
 20
3692.5787770352
  0
VERTEX
  8
GSLAYER
 10
4151.867583642
 20
3692.5787770352
  0
VERTEX
  8
GSLAYER
 10
4152.7565562413
 20
3692.4843868315
  0
VERTEX
  8
GSLAYER
 10
4153.6386641873
 20
3692.2835931255
  0
VERTEX
  8
GSLAYER
 10
4154.51390748
 20
3691.9763959172
  0
VERTEX
  8
GSLAYER
 10
4155.3822861195
 20
3691.5627952065
  0
VERTEX
  8
GSLAYER
 10
4156.2884203519
 20
3690.965562645
  0
VERTEX
  8
GSLAYER
 10
4157.084720132
 20
3690.2722236943
  0
VERTEX
  8
GSLAYER
 10
4157.7711854596
 20
3689.4827783545
  0
VERTEX
  8
GSLAYER
 10
4158.3478163348
 20
3688.5972266254
  0
VERTEX
  8
GSLAYER
 10
4158.7614116947
 20
3687.7391338646
  0
VERTEX
  8
GSLAYER
 10
4159.0686049288
 20
3686.8673116197
  0
VERTEX
  8
GSLAYER
 10
4159.2693960371
 20
3685.9817598906
  0
VERTEX
  8
GSLAYER
 10
4159.3637850197
 20
3685.0824786774
  0
VERTEX
  8
GSLAYER
 10
4159.3637850197
 20
3685.0275607407
  0
VERTEX
  8
GSLAYER
 10
4151.8126664158
 20
3685.0275607407
  0
SEQEND
  0
POLYLINE
  8
GSLAYER
 70
128
 66
1
  0
VERTEX
  8
GSLAYER
 10
4150.9889080227
 20
3685.0275607407
  0
VERTEX
  8
GSLAYER
 10
4143.4377894188
 20
3685.0275607407
  0
VERTEX
  8
GSLAYER
 10
4143.4377894188
 20
3685.0824786774
  0
VERTEX
  8
GSLAYER
 10
4143.5321784014
 20
3685.9714627775
  0
VERTEX
  8
GSLAYER
 10
4143.7329695097
 20
3686.8535821356
  0
VERTEX
  8
GSLAYER
 10
4144.0401627438
 20
3687.7288367515
  0
VERTEX
  8
GSLAYER
 10
4144.4537581037
 20
3688.5972266254
  0
VERTEX
  8
GSLAYER
 10
4145.0509829388
 20
3689.5033725807
  0
VERTEX
  8
GSLAYER
 10
4145.7443129197
 20
3690.2996826627
  0
VERTEX
  8
GSLAYER
 10
4146.5337480464
 20
3690.9861568713
  0
VERTEX
  8
GSLAYER
 10
4147.4192883191
 20
3691.5627952065
  0
VERTEX
  8
GSLAYER
 10
4148.2773699786
 20
3691.9763959172
  0
VERTEX
  8
GSLAYER
 10
4149.1491809447
 20
3692.2835931255
  0
VERTEX
  8
GSLAYER
 10
4150.0347212173
 20
3692.4843868315
  0
VERTEX
  8
GSLAYER
 10
4150.9339907965
 20
3692.5787770352
  0
VERTEX
  8
GSLAYER
 10
4150.9889080227
 20
3692.5787770352
  0
VERTEX
  8
GSLAYER
 10
4150.9889080227
 20
3685.0275607407
  0
SEQEND
  0
POLYLINE
  8
GSLAYER
 70
128
 66
1
  0
VERTEX
  8
GSLAYER
 10
4247.2563093309
 20
3538.4341138331
  0
VERTEX
  8
GSLAYER
 10
4246.1631132966
 20
3538.3637502267
  0
VERTEX
  8
GSLAYER
 10
4245.0802142423
 20
3538.1526594076
  0
VERTEX
  8
GSLAYER
 10
4244.0076121679
 20
3537.8008413757
  0
VERTEX
  8
GSLAYER
 10
4242.9453070734
 20
3537.308296131
  0
VERTEX
  8
GSLAYER
 10
4241.948216185
 20
3536.673307488
  0
VERTEX
  8
GSLAYER
 10
4241.071256729
 20
3535.9216182296
  0
VERTEX
  8
GSLAYER
 10
4240.3144287053
 20
3535.0532283558
  0
VERTEX
  8
GSLAYER
 10
4239.6777321139
 20
3534.0681378664
  0
VERTEX
  8
GSLAYER
 10
4239.4057202278
 20
3533.5421270041
  0
VERTEX
  8
GSLAYER
 10
4239.1663154448
 20
3533.0075352142
  0
VERTEX
  8
GSLAYER
 10
4238.9595177649
 20
3532.4643624966
  0
VERTEX
  8
GSLAYER
 10
4238.785327188
 20
3531.9126088515
  0
VERTEX
  8
GSLAYER
 10
4238.6471760408
 20
3531.3539904642
  0
VERTEX
  8
GSLAYER
 10
4238.54849665
 20
3530.7902235204
  0
VERTEX
  8
GSLAYER
 10
4238.4892890155
 20
3530.22130802
  0
VERTEX
  8
GSLAYER
 10
4238.4695531373
 20
3529.6472439631
  0
VERTEX
  8
GSLAYER
 10
4238.54334816
 20
3528.5540337859
  0
VERTEX
  8
GSLAYER
 10
4238.7647332282
 20
3527.4711207219
  0
VERTEX
  8
GSLAYER
 10
4239.1337083418
 20
3526.3985047709
  0
VERTEX
  8
GSLAYER
 10
4239.6502735008
 20
3525.3361859331
  0
VERTEX
  8
GSLAYER
 10
4240.307564052
 20
3524.328785032
  0
VERTEX
  8
GSLAYER
 10
4241.071256729
 20
3523.4483818595
  0
VERTEX
  8
GSLAYER
 10
4241.9413515318
 20
3522.6949764156
  0
VERTEX
  8
GSLAYER
 10
4242.9178484603
 20
3522.0685687002
  0
VERTEX
  8
GSLAYER
 10
4243.4412782726
 20
3521.807708501
  0
VERTEX
  8
GSLAYER
 10
4243.9681404116
 20
3521.5743072701
  0
VERTEX
  8
GSLAYER
 10
4244.4984348771
 20
3521.3683650075
  0
VERTEX
  8
GSLAYER
 10
4245.0321616694
 20
3521.1898817132
  0
VERTEX
  8
GSLAYER
 10
4245.5727531149
 20
3521.0457221294
  0
VERTEX
  8
GSLAYER
 10
4246.1236415403
 20
3520.9427509981
  0
VERTEX
  8
GSLAYER
 10
4246.6848269456
 20
3520.8809683194
  0
VERTEX
  8
GSLAYER
 10
4247.2563093309
 20
3520.8603740931
  0
VERTEX
  8
GSLAYER
 10
4247.8286497978
 20
3520.8809683194
  0
VERTEX
  8
GSLAYER
 10
4248.3924094481
 20
3520.9427509981
  0
VERTEX
  8
GSLAYER
 10
4248.9475882818
 20
3521.0457221294
  0
VERTEX
  8
GSLAYER
 10
4249.4941862989
 20
3521.1898817132
  0
VERTEX
  8
GSLAYER
 10
4250.0339196628
 20
3521.3683650075
  0
VERTEX
  8
GSLAYER
 10
4250.5685045366
 20
3521.5743072701
  0
VERTEX
  8
GSLAYER
 10
4251.0979409206
 20
3521.807708501
  0
VERTEX
  8
GSLAYER
 10
4251.6222288145
 20
3522.0685687002
  0
VERTEX
  8
GSLAYER
 10
4252.5970095798
 20
3522.6949764156
  0
VERTEX
  8
GSLAYER
 10
4253.4619558926
 20
3523.4483818595
  0
VERTEX
  8
GSLAYER
 10
4254.217067753
 20
3524.328785032
  0
VERTEX
  8
GSLAYER
 10
4254.8623451609
 20
3525.3361859331
  0
VERTEX
  8
GSLAYER
 10
4255.37891032
 20
3526.3985047709
  0
VERTEX
  8
GSLAYER
 10
4255.7478854335
 20
3527.4711207219
  0
VERTEX
  8
GSLAYER
 10
4255.9692705017
 20
3528.5540337859
  0
VERTEX
  8
GSLAYER
 10
4256.0430655244
 20
3529.6472439631
  0
VERTEX
  8
GSLAYER
 10
4255.9692705017
 20
3530.7782102218
  0
VERTEX
  8
GSLAYER
 10
4255.7478854335
 20
3531.8920146252
  0
VERTEX
  8
GSLAYER
 10
4255.37891032
 20
3532.9886571734
  0
VERTEX
  8
GSLAYER
 10
4254.8623451609
 20
3534.0681378664
  0
VERTEX
  8
GSLAYER
 10
4254.5474291919
 20
3534.5761287808
  0
VERTEX
  8
GSLAYER
 10
4254.206770773
 20
3535.0566607268
  0
VERTEX
  8
GSLAYER
 10
4253.8403699044
 20
3535.5097337045
  0
VERTEX
  8
GSLAYER
 10
4253.448226586
 20
3535.9353477138
  0
VERTEX
  8
GSLAYER
 10
4253.0286246545
 20
3536.3300703837
  0
VERTEX
  8
GSLAYER
 10
4252.5798479466
 20
3536.6904693433
  0
VERTEX
  8
GSLAYER
 10
4252.1018964622
 20
3537.0165445923
  0
VERTEX
  8
GSLAYER
 10
4251.5947702014
 20
3537.308296131
  0
VERTEX
  8
GSLAYER
 10
4250.5101549838
 20
3537.8008413757
  0
VERTEX
  8
GSLAYER
 10
4249.4255397662
 20
3538.1526594076
  0
VERTEX
  8
GSLAYER
 10
4248.3409245485
 20
3538.3637502267
  0
VERTEX
  8
GSLAYER
 10
4247.2563093309
 20
3538.4341138331
  0
SEQEND
  0
POLYLINE
  8
GSLAYER
 70
128
 66
1
  0
VERTEX
  8
GSLAYER
 10
4247.6681885274
 20
3529.2353594379
  0
VERTEX
  8
GSLAYER
 10
4255.2193071313
 20
3529.2353594379
  0
VERTEX
  8
GSLAYER
 10
4255.2193071313
 20
3529.1804415013
  0
VERTEX
  8
GSLAYER
 10
4255.1249181487
 20
3528.2914574011
  0
VERTEX
  8
GSLAYER
 10
4254.9241270404
 20
3527.4093380431
  0
VERTEX
  8
GSLAYER
 10
4254.6169338063
 20
3526.5340834271
  0
VERTEX
  8
GSLAYER
 10
4254.2033384464
 20
3525.6656935533
  0
VERTEX
  8
GSLAYER
 10
4253.6061136114
 20
3524.7595475979
  0
VERTEX
  8
GSLAYER
 10
4252.9127836305
 20
3523.963237516
  0
VERTEX
  8
GSLAYER
 10
4252.1233485037
 20
3523.2767633074
  0
VERTEX
  8
GSLAYER
 10
4251.2378082311
 20
3522.7001249721
  0
VERTEX
  8
GSLAYER
 10
4250.3797265715
 20
3522.2865242615
  0
VERTEX
  8
GSLAYER
 10
4249.5079156055
 20
3521.9793270531
  0
VERTEX
  8
GSLAYER
 10
4248.6223753328
 20
3521.7785333471
  0
VERTEX
  8
GSLAYER
 10
4247.7231057536
 20
3521.6841431434
  0
VERTEX
  8
GSLAYER
 10
4247.6681885274
 20
3521.6841431434
  0
VERTEX
  8
GSLAYER
 10
4247.6681885274
 20
3529.2353594379
  0
SEQEND
  0
POLYLINE
  8
GSLAYER
 70
128
 66
1
  0
VERTEX
  8
GSLAYER
 10
4246.8444301343
 20
3529.2353594379
  0
VERTEX
  8
GSLAYER
 10
4246.8444301343
 20
3521.6841431434
  0
VERTEX
  8
GSLAYER
 10
4246.7895129081
 20
3521.6841431434
  0
VERTEX
  8
GSLAYER
 10
4245.9005403088
 20
3521.7785333471
  0
VERTEX
  8
GSLAYER
 10
4245.0184323628
 20
3521.9793270531
  0
VERTEX
  8
GSLAYER
 10
4244.1431890701
 20
3522.2865242615
  0
VERTEX
  8
GSLAYER
 10
4243.2748104307
 20
3522.7001249721
  0
VERTEX
  8
GSLAYER
 10
4242.3686761982
 20
3523.2973575336
  0
VERTEX
  8
GSLAYER
 10
4241.5723764182
 20
3523.9906964843
  0
VERTEX
  8
GSLAYER
 10
4240.8859110905
 20
3524.7801418242
  0
VERTEX
  8
GSLAYER
 10
4240.3092802153
 20
3525.6656935533
  0
VERTEX
  8
GSLAYER
 10
4239.8956848554
 20
3526.523786314
  0
VERTEX
  8
GSLAYER
 10
4239.5884916213
 20
3527.3956085589
  0
VERTEX
  8
GSLAYER
 10
4239.387700513
 20
3528.281160288
  0
VERTEX
  8
GSLAYER
 10
4239.2933115304
 20
3529.1804415013
  0
VERTEX
  8
GSLAYER
 10
4239.2933115304
 20
3529.2353594379
  0
VERTEX
  8
GSLAYER
 10
4246.8444301343
 20
3529.2353594379
  0
SEQEND
  0
POLYLINE
  8
GSLAYER
 70
128
 66
1
  0
VERTEX
  8
GSLAYER
 10
4247.6681885274
 20
3530.0591284883
  0
VERTEX
  8
GSLAYER
 10
4247.6681885274
 20
3537.6103447828
  0
VERTEX
  8
GSLAYER
 10
4247.7231057536
 20
3537.6103447828
  0
VERTEX
  8
GSLAYER
 10
4248.6120783529
 20
3537.5159545791
  0
VERTEX
  8
GSLAYER
 10
4249.4941862989
 20
3537.3151608731
  0
VERTEX
  8
GSLAYER
 10
4250.3694295916
 20
3537.0079636647
  0
VERTEX
  8
GSLAYER
 10
4251.2378082311
 20
3536.5943629541
  0
VERTEX
  8
GSLAYER
 10
4252.1439424635
 20
3535.9971303926
  0
VERTEX
  8
GSLAYER
 10
4252.9402422436
 20
3535.3037914419
  0
VERTEX
  8
GSLAYER
 10
4253.6267075712
 20
3534.514346102
  0
VERTEX
  8
GSLAYER
 10
4254.2033384464
 20
3533.6287943729
  0
VERTEX
  8
GSLAYER
 10
4254.6169338063
 20
3532.7707016122
  0
VERTEX
  8
GSLAYER
 10
4254.9241270404
 20
3531.8988793673
  0
VERTEX
  8
GSLAYER
 10
4255.1249181487
 20
3531.0133276382
  0
VERTEX
  8
GSLAYER
 10
4255.2193071313
 20
3530.1140464249
  0
VERTEX
  8
GSLAYER
 10
4255.2193071313
 20
3530.0591284883
  0
VERTEX
  8
GSLAYER
 10
4247.6681885274
 20
3530.0591284883
  0
SEQEND
  0
POLYLINE
  8
GSLAYER
 70
128
 66
1
  0
VERTEX
  8
GSLAYER
 10
4246.8444301343
 20
3530.0591284883
  0
VERTEX
  8
GSLAYER
 10
4239.2933115304
 20
3530.0591284883
  0
VERTEX
  8
GSLAYER
 10
4239.2933115304
 20
3530.1140464249
  0
VERTEX
  8
GSLAYER
 10
4239.387700513
 20
3531.0030305251
  0
VERTEX
  8
GSLAYER
 10
4239.5884916213
 20
3531.8851498831
  0
VERTEX
  8
GSLAYER
 10
4239.8956848554
 20
3532.7604044991
  0
VERTEX
  8
GSLAYER
 10
4240.3092802153
 20
3533.6287943729
  0
VERTEX
  8
GSLAYER
 10
4240.9065050504
 20
3534.5349403283
  0
VERTEX
  8
GSLAYER
 10
4241.5998350313
 20
3535.3312504102
  0
VERTEX
  8
GSLAYER
 10
4242.389270158
 20
3536.0177246188
  0
VERTEX
  8
GSLAYER
 10
4243.2748104307
 20
3536.5943629541
  0
VERTEX
  8
GSLAYER
 10
4244.1328920902
 20
3537.0079636647
  0
VERTEX
  8
GSLAYER
 10
4245.0047030563
 20
3537.3151608731
  0
VERTEX
  8
GSLAYER
 10
4245.8902433289
 20
3537.5159545791
  0
VERTEX
  8
GSLAYER
 10
4246.7895129081
 20
3537.6103447828
  0
VERTEX
  8
GSLAYER
 10
4246.8444301343
 20
3537.6103447828
  0
VERTEX
  8
GSLAYER
 10
4246.8444301343
 20
3530.0591284883
  0
SEQEND
  0
POLYLINE
  8
GSLAYER
 70
128
 66
1
  0
VERTEX
  8
GSLAYER
 10
4290.3912942811
 20
3396.2465832097
  0
VERTEX
  8
GSLAYER
 10
4289.2980982468
 20
3396.1762196033
  0
VERTEX
  8
GSLAYER
 10
4288.2151991925
 20
3395.9651287842
  0
VERTEX
  8
GSLAYER
 10
4287.1425971181
 20
3395.6133107523
  0
VERTEX
  8
GSLAYER
 10
4286.0802920236
 20
3395.1207655076
  0
VERTEX
  8
GSLAYER
 10
4285.0832011352
 20
3394.4857768647
  0
VERTEX
  8
GSLAYER
 10
4284.2062416792
 20
3393.7340876063
  0
VERTEX
  8
GSLAYER
 10
4283.4494136555
 20
3392.8656977324
  0
VERTEX
  8
GSLAYER
 10
4282.8127170641
 20
3391.8806072431
  0
VERTEX
  8
GSLAYER
 10
4282.5407051781
 20
3391.3545963807
  0
VERTEX
  8
GSLAYER
 10
4282.3013003951
 20
3390.8200045908
  0
VERTEX
  8
GSLAYER
 10
4282.0945027151
 20
3390.2768318732
  0
VERTEX
  8
GSLAYER
 10
4281.9203121382
 20
3389.7250782281
  0
VERTEX
  8
GSLAYER
 10
4281.782160991
 20
3389.1664598408
  0
VERTEX
  8
GSLAYER
 10
4281.6834816002
 20
3388.602692897
  0
VERTEX
  8
GSLAYER
 10
4281.6242739657
 20
3388.0337773967
  0
VERTEX
  8
GSLAYER
 10
4281.6045380875
 20
3387.4597133397
  0
VERTEX
  8
GSLAYER
 10
4281.6783331102
 20
3386.3665031625
  0
VERTEX
  8
GSLAYER
 10
4281.8997181784
 20
3385.2835900985
  0
VERTEX
  8
GSLAYER
 10
4282.268693292
 20
3384.2109741476
  0
VERTEX
  8
GSLAYER
 10
4282.785258451
 20
3383.1486553098
  0
VERTEX
  8
GSLAYER
 10
4283.4425490022
 20
3382.1412544087
  0
VERTEX
  8
GSLAYER
 10
4284.2062416792
 20
3381.2608512361
  0
VERTEX
  8
GSLAYER
 10
4285.076336482
 20
3380.5074457922
  0
VERTEX
  8
GSLAYER
 10
4286.0528334105
 20
3379.8810380769
  0
VERTEX
  8
GSLAYER
 10
4286.5762632228
 20
3379.6201778776
  0
VERTEX
  8
GSLAYER
 10
4287.1031253618
 20
3379.3867766467
  0
VERTEX
  8
GSLAYER
 10
4287.6334198274
 20
3379.1808343841
  0
VERTEX
  8
GSLAYER
 10
4288.1671466196
 20
3379.0023510899
  0
VERTEX
  8
GSLAYER
 10
4288.7077380651
 20
3378.8581915061
  0
VERTEX
  8
GSLAYER
 10
4289.2586264905
 20
3378.7552203748
  0
VERTEX
  8
GSLAYER
 10
4289.8198118958
 20
3378.693437696
  0
VERTEX
  8
GSLAYER
 10
4290.3912942811
 20
3378.6728434697
  0
VERTEX
  8
GSLAYER
 10
4290.963634748
 20
3378.693437696
  0
VERTEX
  8
GSLAYER
 10
4291.5273943983
 20
3378.7552203748
  0
VERTEX
  8
GSLAYER
 10
4292.082573232
 20
3378.8581915061
  0
VERTEX
  8
GSLAYER
 10
4292.6291712491
 20
3379.0023510899
  0
VERTEX
  8
GSLAYER
 10
4293.168904613
 20
3379.1808343841
  0
VERTEX
  8
GSLAYER
 10
4293.7034894869
 20
3379.3867766467
  0
VERTEX
  8
GSLAYER
 10
4294.2329258708
 20
3379.6201778776
  0
VERTEX
  8
GSLAYER
 10
4294.7572137648
 20
3379.8810380769
  0
VERTEX
  8
GSLAYER
 10
4295.73199453
 20
3380.5074457922
  0
VERTEX
  8
GSLAYER
 10
4296.5969408428
 20
3381.2608512361
  0
VERTEX
  8
GSLAYER
 10
4297.3520527032
 20
3382.1412544087
  0
VERTEX
  8
GSLAYER
 10
4297.9973301111
 20
3383.1486553098
  0
VERTEX
  8
GSLAYER
 10
4298.5138952702
 20
3384.2109741476
  0
VERTEX
  8
GSLAYER
 10
4298.8828703838
 20
3385.2835900985
  0
VERTEX
  8
GSLAYER
 10
4299.1042554519
 20
3386.3665031625
  0
VERTEX
  8
GSLAYER
 10
4299.1780504746
 20
3387.4597133397
  0
VERTEX
  8
GSLAYER
 10
4299.1042554519
 20
3388.5906795984
  0
VERTEX
  8
GSLAYER
 10
4298.8828703838
 20
3389.7044840018
  0
VERTEX
  8
GSLAYER
 10
4298.5138952702
 20
3390.80112655
  0
VERTEX
  8
GSLAYER
 10
4297.9973301111
 20
3391.8806072431
  0
VERTEX
  8
GSLAYER
 10
4297.6824141421
 20
3392.3885981574
  0
VERTEX
  8
GSLAYER
 10
4297.3417557233
 20
3392.8691301034
  0
VERTEX
  8
GSLAYER
 10
4296.9753548546
 20
3393.3222030811
  0
VERTEX
  8
GSLAYER
 10
4296.5832115362
 20
3393.7478170904
  0
VERTEX
  8
GSLAYER
 10
4296.1636096047
 20
3394.1425397604
  0
VERTEX
  8
GSLAYER
 10
4295.7148328968
 20
3394.5029387199
  0
VERTEX
  8
GSLAYER
 10
4295.2368814124
 20
3394.829013969
  0
VERTEX
  8
GSLAYER
 10
4294.7297551517
 20
3395.1207655076
  0
VERTEX
  8
GSLAYER
 10
4293.645139934
 20
3395.6133107523
  0
VERTEX
  8
GSLAYER
 10
4292.5605247164
 20
3395.9651287842
  0
VERTEX
  8
GSLAYER
 10
4291.4759094987
 20
3396.1762196033
  0
VERTEX
  8
GSLAYER
 10
4290.3912942811
 20
3396.2465832097
  0
SEQEND
  0
POLYLINE
  8
GSLAYER
 70
128
 66
1
  0
VERTEX
  8
GSLAYER
 10
4290.8031734777
 20
3387.0478288146
  0
VERTEX
  8
GSLAYER
 10
4298.3542920815
 20
3387.0478288146
  0
VERTEX
  8
GSLAYER
 10
4298.3542920815
 20
3386.9929108779
  0
VERTEX
  8
GSLAYER
 10
4298.259903099
 20
3386.1039267778
  0
VERTEX
  8
GSLAYER
 10
4298.0591119906
 20
3385.2218074197
  0
VERTEX
  8
GSLAYER
 10
4297.7519187565
 20
3384.3465528038
  0
VERTEX
  8
GSLAYER
 10
4297.3383233966
 20
3383.4781629299
  0
VERTEX
  8
GSLAYER
 10
4296.7410985616
 20
3382.5720169745
  0
VERTEX
  8
GSLAYER
 10
4296.0477685807
 20
3381.7757068926
  0
VERTEX
  8
GSLAYER
 10
4295.2583334539
 20
3381.089232684
  0
VERTEX
  8
GSLAYER
 10
4294.3727931813
 20
3380.5125943488
  0
VERTEX
  8
GSLAYER
 10
4293.5147115218
 20
3380.0989936381
  0
VERTEX
  8
GSLAYER
 10
4292.6429005557
 20
3379.7917964297
  0
VERTEX
  8
GSLAYER
 10
4291.7573602831
 20
3379.5910027237
  0
VERTEX
  8
GSLAYER
 10
4290.8580907039
 20
3379.4966125201
  0
VERTEX
  8
GSLAYER
 10
4290.8031734777
 20
3379.4966125201
  0
VERTEX
  8
GSLAYER
 10
4290.8031734777
 20
3387.0478288146
  0
SEQEND
  0
POLYLINE
  8
GSLAYER
 70
128
 66
1
  0
VERTEX
  8
GSLAYER
 10
4289.9794150845
 20
3387.0478288146
  0
VERTEX
  8
GSLAYER
 10
4289.9794150845
 20
3379.4966125201
  0
VERTEX
  8
GSLAYER
 10
4289.9244978583
 20
3379.4966125201
  0
VERTEX
  8
GSLAYER
 10
4289.035525259
 20
3379.5910027237
  0
VERTEX
  8
GSLAYER
 10
4288.153417313
 20
3379.7917964297
  0
VERTEX
  8
GSLAYER
 10
4287.2781740203
 20
3380.0989936381
  0
VERTEX
  8
GSLAYER
 10
4286.4097953809
 20
3380.5125943488
  0
VERTEX
  8
GSLAYER
 10
4285.5036611484
 20
3381.1098269102
  0
VERTEX
  8
GSLAYER
 10
4284.7073613684
 20
3381.8031658609
  0
VERTEX
  8
GSLAYER
 10
4284.0208960408
 20
3382.5926112008
  0
VERTEX
  8
GSLAYER
 10
4283.4442651655
 20
3383.4781629299
  0
VERTEX
  8
GSLAYER
 10
4283.0306698057
 20
3384.3362556906
  0
VERTEX
  8
GSLAYER
 10
4282.7234765715
 20
3385.2080779355
  0
VERTEX
  8
GSLAYER
 10
4282.5226854632
 20
3386.0936296646
  0
VERTEX
  8
GSLAYER
 10
4282.4282964807
 20
3386.9929108779
  0
VERTEX
  8
GSLAYER
 10
4282.4282964807
 20
3387.0478288146
  0
VERTEX
  8
GSLAYER
 10
4289.9794150845
 20
3387.0478288146
  0
SEQEND
  0
POLYLINE
  8
GSLAYER
 70
128
 66
1
  0
VERTEX
  8
GSLAYER
 10
4290.8031734777
 20
3387.8715978649
  0
VERTEX
  8
GSLAYER
 10
4290.8031734777
 20
3395.4228141594
  0
VERTEX
  8
GSLAYER
 10
4290.8580907039
 20
3395.4228141594
  0
VERTEX
  8
GSLAYER
 10
4291.7470633031
 20
3395.3284239557
  0
VERTEX
  8
GSLAYER
 10
4292.6291712491
 20
3395.1276302497
  0
VERTEX
  8
GSLAYER
 10
4293.5044145419
 20
3394.8204330414
  0
VERTEX
  8
GSLAYER
 10
4294.3727931813
 20
3394.4068323307
  0
VERTEX
  8
GSLAYER
 10
4295.2789274138
 20
3393.8095997692
  0
VERTEX
  8
GSLAYER
 10
4296.0752271938
 20
3393.1162608185
  0
VERTEX
  8
GSLAYER
 10
4296.7616925214
 20
3392.3268154786
  0
VERTEX
  8
GSLAYER
 10
4297.3383233966
 20
3391.4412637496
  0
VERTEX
  8
GSLAYER
 10
4297.7519187565
 20
3390.5831709888
  0
VERTEX
  8
GSLAYER
 10
4298.0591119906
 20
3389.7113487439
  0
VERTEX
  8
GSLAYER
 10
4298.259903099
 20
3388.8257970148
  0
VERTEX
  8
GSLAYER
 10
4298.3542920815
 20
3387.9265158016
  0
VERTEX
  8
GSLAYER
 10
4298.3542920815
 20
3387.8715978649
  0
VERTEX
  8
GSLAYER
 10
4290.8031734777
 20
3387.8715978649
  0
SEQEND
  0
POLYLINE
  8
GSLAYER
 70
128
 66
1
  0
VERTEX
  8
GSLAYER
 10
4289.9794150845
 20
3387.8715978649
  0
VERTEX
  8
GSLAYER
 10
4282.4282964807
 20
3387.8715978649
  0
VERTEX
  8
GSLAYER
 10
4282.4282964807
 20
3387.9265158016
  0
VERTEX
  8
GSLAYER
 10
4282.5226854632
 20
3388.8154999017
  0
VERTEX
  8
GSLAYER
 10
4282.7234765715
 20
3389.6976192597
  0
VERTEX
  8
GSLAYER
 10
4283.0306698057
 20
3390.5728738757
  0
VERTEX
  8
GSLAYER
 10
4283.4442651655
 20
3391.4412637496
  0
VERTEX
  8
GSLAYER
 10
4284.0414900006
 20
3392.3474097049
  0
VERTEX
  8
GSLAYER
 10
4284.7348199815
 20
3393.1437197869
  0
VERTEX
  8
GSLAYER
 10
4285.5242551082
 20
3393.8301939955
  0
VERTEX
  8
GSLAYER
 10
4286.4097953809
 20
3394.4068323307
  0
VERTEX
  8
GSLAYER
 10
4287.2678770404
 20
3394.8204330414
  0
VERTEX
  8
GSLAYER
 10
4288.1396880065
 20
3395.1276302497
  0
VERTEX
  8
GSLAYER
 10
4289.0252282791
 20
3395.3284239557
  0
VERTEX
  8
GSLAYER
 10
4289.9244978583
 20
3395.4228141594
  0
VERTEX
  8
GSLAYER
 10
4289.9794150845
 20
3395.4228141594
  0
VERTEX
  8
GSLAYER
 10
4289.9794150845
 20
3387.8715978649
  0
SEQEND
  0
POLYLINE
  8
GSLAYER
 70
128
 66
1
  0
VERTEX
  8
GSLAYER
 10
4053.9476730725
 20
3369.0871672479
  0
VERTEX
  8
GSLAYER
 10
4052.8544770382
 20
3369.0168036416
  0
VERTEX
  8
GSLAYER
 10
4051.7715779839
 20
3368.8057128224
  0
VERTEX
  8
GSLAYER
 10
4050.6989759095
 20
3368.4538947905
  0
VERTEX
  8
GSLAYER
 10
4049.636670815
 20
3367.9613495458
  0
VERTEX
  8
GSLAYER
 10
4048.6395799266
 20
3367.3263609029
  0
VERTEX
  8
GSLAYER
 10
4047.7626204706
 20
3366.5746716445
  0
VERTEX
  8
GSLAYER
 10
4047.0057924469
 20
3365.7062817706
  0
VERTEX
  8
GSLAYER
 10
4046.3690958555
 20
3364.7211912813
  0
VERTEX
  8
GSLAYER
 10
4046.0970839695
 20
3364.195180419
  0
VERTEX
  8
GSLAYER
 10
4045.8576791864
 20
3363.660588629
  0
VERTEX
  8
GSLAYER
 10
4045.6508815065
 20
3363.1174159115
  0
VERTEX
  8
GSLAYER
 10
4045.4766909296
 20
3362.5656622663
  0
VERTEX
  8
GSLAYER
 10
4045.3385397824
 20
3362.0070438791
  0
VERTEX
  8
GSLAYER
 10
4045.2398603916
 20
3361.4432769353
  0
VERTEX
  8
GSLAYER
 10
4045.1806527571
 20
3360.8743614349
  0
VERTEX
  8
GSLAYER
 10
4045.1609168789
 20
3360.300297378
  0
VERTEX
  8
GSLAYER
 10
4045.2347119016
 20
3359.2070872008
  0
VERTEX
  8
GSLAYER
 10
4045.4560969698
 20
3358.1241741367
  0
VERTEX
  8
GSLAYER
 10
4045.8250720834
 20
3357.0515581858
  0
VERTEX
  8
GSLAYER
 10
4046.3416372424
 20
3355.989239348
  0
VERTEX
  8
GSLAYER
 10
4046.9989277936
 20
3354.9818384469
  0
VERTEX
  8
GSLAYER
 10
4047.7626204706
 20
3354.1014352744
  0
VERTEX
  8
GSLAYER
 10
4048.6327152734
 20
3353.3480298304
  0
VERTEX
  8
GSLAYER
 10
4049.6092122019
 20
3352.7216221151
  0
VERTEX
  8
GSLAYER
 10
4050.1326420142
 20
3352.4607619158
  0
VERTEX
  8
GSLAYER
 10
4050.6595041532
 20
3352.2273606849
  0
VERTEX
  8
GSLAYER
 10
4051.1897986188
 20
3352.0214184223
  0
VERTEX
  8
GSLAYER
 10
4051.723525411
 20
3351.8429351281
  0
VERTEX
  8
GSLAYER
 10
4052.2641168565
 20
3351.6987755443
  0
VERTEX
  8
GSLAYER
 10
4052.8150052819
 20
3351.595804413
  0
VERTEX
  8
GSLAYER
 10
4053.3761906872
 20
3351.5340217342
  0
VERTEX
  8
GSLAYER
 10
4053.9476730725
 20
3351.513427508
  0
VERTEX
  8
GSLAYER
 10
4054.5200135394
 20
3351.5340217342
  0
VERTEX
  8
GSLAYER
 10
4055.0837731897
 20
3351.595804413
  0
VERTEX
  8
GSLAYER
 10
4055.6389520234
 20
3351.6987755443
  0
VERTEX
  8
GSLAYER
 10
4056.1855500405
 20
3351.8429351281
  0
VERTEX
  8
GSLAYER
 10
4056.7252834044
 20
3352.0214184223
  0
VERTEX
  8
GSLAYER
 10
4057.2598682783
 20
3352.2273606849
  0
VERTEX
  8
GSLAYER
 10
4057.7893046622
 20
3352.4607619158
  0
VERTEX
  8
GSLAYER
 10
4058.3135925562
 20
3352.7216221151
  0
VERTEX
  8
GSLAYER
 10
4059.2883733214
 20
3353.3480298304
  0
VERTEX
  8
GSLAYER
 10
4060.1533196342
 20
3354.1014352744
  0
VERTEX
  8
GSLAYER
 10
4060.9084314946
 20
3354.9818384469
  0
VERTEX
  8
GSLAYER
 10
4061.5537089025
 20
3355.989239348
  0
VERTEX
  8
GSLAYER
 10
4062.0702740616
 20
3357.0515581858
  0
VERTEX
  8
GSLAYER
 10
4062.4392491752
 20
3358.1241741367
  0
VERTEX
  8
GSLAYER
 10
4062.6606342433
 20
3359.2070872008
  0
VERTEX
  8
GSLAYER
 10
4062.734429266
 20
3360.300297378
  0
VERTEX
  8
GSLAYER
 10
4062.6606342433
 20
3361.4312636366
  0
VERTEX
  8
GSLAYER
 10
4062.4392491752
 20
3362.5450680401
  0
VERTEX
  8
GSLAYER
 10
4062.0702740616
 20
3363.6417105883
  0
VERTEX
  8
GSLAYER
 10
4061.5537089025
 20
3364.7211912813
  0
VERTEX
  8
GSLAYER
 10
4061.2387929335
 20
3365.2291821957
  0
VERTEX
  8
GSLAYER
 10
4060.8981345146
 20
3365.7097141417
  0
VERTEX
  8
GSLAYER
 10
4060.531733646
 20
3366.1627871193
  0
VERTEX
  8
GSLAYER
 10
4060.1395903276
 20
3366.5884011287
  0
VERTEX
  8
GSLAYER
 10
4059.7199883961
 20
3366.9831237986
  0
VERTEX
  8
GSLAYER
 10
4059.2712116882
 20
3367.3435227581
  0
VERTEX
  8
GSLAYER
 10
4058.7932602038
 20
3367.6695980072
  0
VERTEX
  8
GSLAYER
 10
4058.286133943
 20
3367.9613495458
  0
VERTEX
  8
GSLAYER
 10
4057.2015187254
 20
3368.4538947905
  0
VERTEX
  8
GSLAYER
 10
4056.1169035078
 20
3368.8057128224
  0
VERTEX
  8
GSLAYER
 10
4055.0322882901
 20
3369.0168036416
  0
VERTEX
  8
GSLAYER
 10
4053.9476730725
 20
3369.0871672479
  0
SEQEND
  0
POLYLINE
  8
GSLAYER
 70
128
 66
1
  0
VERTEX
  8
GSLAYER
 10
4054.359552269
 20
3359.8884128528
  0
VERTEX
  8
GSLAYER
 10
4061.9106708729
 20
3359.8884128528
  0
VERTEX
  8
GSLAYER
 10
4061.9106708729
 20
3359.8334949161
  0
VERTEX
  8
GSLAYER
 10
4061.8162818903
 20
3358.944510816
  0
VERTEX
  8
GSLAYER
 10
4061.615490782
 20
3358.0623914579
  0
VERTEX
  8
GSLAYER
 10
4061.3082975479
 20
3357.187136842
  0
VERTEX
  8
GSLAYER
 10
4060.894702188
 20
3356.3187469681
  0
VERTEX
  8
GSLAYER
 10
4060.297477353
 20
3355.4126010128
  0
VERTEX
  8
GSLAYER
 10
4059.6041473721
 20
3354.6162909308
  0
VERTEX
  8
GSLAYER
 10
4058.8147122453
 20
3353.9298167222
  0
VERTEX
  8
GSLAYER
 10
4057.9291719727
 20
3353.353178387
  0
VERTEX
  8
GSLAYER
 10
4057.0710903132
 20
3352.9395776763
  0
VERTEX
  8
GSLAYER
 10
4056.1992793471
 20
3352.632380468
  0
VERTEX
  8
GSLAYER
 10
4055.3137390744
 20
3352.431586762
  0
VERTEX
  8
GSLAYER
 10
4054.4144694953
 20
3352.3371965583
  0
VERTEX
  8
GSLAYER
 10
4054.359552269
 20
3352.3371965583
  0
VERTEX
  8
GSLAYER
 10
4054.359552269
 20
3359.8884128528
  0
SEQEND
  0
POLYLINE
  8
GSLAYER
 70
128
 66
1
  0
VERTEX
  8
GSLAYER
 10
4053.5357938759
 20
3359.8884128528
  0
VERTEX
  8
GSLAYER
 10
4053.5357938759
 20
3352.3371965583
  0
VERTEX
  8
GSLAYER
 10
4053.4808766497
 20
3352.3371965583
  0
VERTEX
  8
GSLAYER
 10
4052.5919040504
 20
3352.431586762
  0
VERTEX
  8
GSLAYER
 10
4051.7097961044
 20
3352.632380468
  0
VERTEX
  8
GSLAYER
 10
4050.8345528117
 20
3352.9395776763
  0
VERTEX
  8
GSLAYER
 10
4049.9661741723
 20
3353.353178387
  0
VERTEX
  8
GSLAYER
 10
4049.0600399398
 20
3353.9504109485
  0
VERTEX
  8
GSLAYER
 10
4048.2637401598
 20
3354.6437498992
  0
VERTEX
  8
GSLAYER
 10
4047.5772748321
 20
3355.433195239
  0
VERTEX
  8
GSLAYER
 10
4047.0006439569
 20
3356.3187469681
  0
VERTEX
  8
GSLAYER
 10
4046.587048597
 20
3357.1768397289
  0
VERTEX
  8
GSLAYER
 10
4046.2798553629
 20
3358.0486619738
  0
VERTEX
  8
GSLAYER
 10
4046.0790642546
 20
3358.9342137029
  0
VERTEX
  8
GSLAYER
 10
4045.9846752721
 20
3359.8334949161
  0
VERTEX
  8
GSLAYER
 10
4045.9846752721
 20
3359.8884128528
  0
VERTEX
  8
GSLAYER
 10
4053.5357938759
 20
3359.8884128528
  0
SEQEND
  0
POLYLINE
  8
GSLAYER
 70
128
 66
1
  0
VERTEX
  8
GSLAYER
 10
4054.359552269
 20
3360.7121819031
  0
VERTEX
  8
GSLAYER
 10
4054.359552269
 20
3368.2633981976
  0
VERTEX
  8
GSLAYER
 10
4054.4144694953
 20
3368.2633981976
  0
VERTEX
  8
GSLAYER
 10
4055.3034420945
 20
3368.1690079939
  0
VERTEX
  8
GSLAYER
 10
4056.1855500405
 20
3367.9682142879
  0
VERTEX
  8
GSLAYER
 10
4057.0607933332
 20
3367.6610170796
  0
VERTEX
  8
GSLAYER
 10
4057.9291719727
 20
3367.2474163689
  0
VERTEX
  8
GSLAYER
 10
4058.8353062051
 20
3366.6501838074
  0
VERTEX
  8
GSLAYER
 10
4059.6316059852
 20
3365.9568448568
  0
VERTEX
  8
GSLAYER
 10
4060.3180713128
 20
3365.1673995169
  0
VERTEX
  8
GSLAYER
 10
4060.894702188
 20
3364.2818477878
  0
VERTEX
  8
GSLAYER
 10
4061.3082975479
 20
3363.4237550271
  0
VERTEX
  8
GSLAYER
 10
4061.615490782
 20
3362.5519327821
  0
VERTEX
  8
GSLAYER
 10
4061.8162818903
 20
3361.6663810531
  0
VERTEX
  8
GSLAYER
 10
4061.9106708729
 20
3360.7670998398
  0
VERTEX
  8
GSLAYER
 10
4061.9106708729
 20
3360.7121819031
  0
VERTEX
  8
GSLAYER
 10
4054.359552269
 20
3360.7121819031
  0
SEQEND
  0
POLYLINE
  8
GSLAYER
 70
128
 66
1
  0
VERTEX
  8
GSLAYER
 10
4053.5357938759
 20
3360.7121819031
  0
VERTEX
  8
GSLAYER
 10
4045.9846752721
 20
3360.7121819031
  0
VERTEX
  8
GSLAYER
 10
4045.9846752721
 20
3360.7670998398
  0
VERTEX
  8
GSLAYER
 10
4046.0790642546
 20
3361.6560839399
  0
VERTEX
  8
GSLAYER
 10
4046.2798553629
 20
3362.538203298
  0
VERTEX
  8
GSLAYER
 10
4046.587048597
 20
3363.4134579139
  0
VERTEX
  8
GSLAYER
 10
4047.0006439569
 20
3364.2818477878
  0
VERTEX
  8
GSLAYER
 10
4047.597868792
 20
3365.1879937431
  0
VERTEX
  8
GSLAYER
 10
4048.2911987729
 20
3365.9843038251
  0
VERTEX
  8
GSLAYER
 10
4049.0806338996
 20
3366.6707780337
  0
VERTEX
  8
GSLAYER
 10
4049.9661741723
 20
3367.2474163689
  0
VERTEX
  8
GSLAYER
 10
4050.8242558318
 20
3367.6610170796
  0
VERTEX
  8
GSLAYER
 10
4051.6960667979
 20
3367.9682142879
  0
VERTEX
  8
GSLAYER
 10
4052.5816070705
 20
3368.1690079939
  0
VERTEX
  8
GSLAYER
 10
4053.4808766497
 20
3368.2633981976
  0
VERTEX
  8
GSLAYER
 10
4053.5357938759
 20
3368.2633981976
  0
VERTEX
  8
GSLAYER
 10
4053.5357938759
 20
3360.7121819031
  0
SEQEND
  0
POLYLINE
  8
GSLAYER
 70
128
 66
1
  0
VERTEX
  8
GSLAYER
 10
4501.2734429266
 20
2953.7078643033
  0
VERTEX
  8
GSLAYER
 10
4500.1802468924
 20
2953.6375006969
  0
VERTEX
  8
GSLAYER
 10
4499.097347838
 20
2953.4264098777
  0
VERTEX
  8
GSLAYER
 10
4498.0247457636
 20
2953.0745918458
  0
VERTEX
  8
GSLAYER
 10
4496.9624406691
 20
2952.5820466012
  0
VERTEX
  8
GSLAYER
 10
4495.9653497808
 20
2951.9470579582
  0
VERTEX
  8
GSLAYER
 10
4495.0883903247
 20
2951.1953686998
  0
VERTEX
  8
GSLAYER
 10
4494.331562301
 20
2950.3269788259
  0
VERTEX
  8
GSLAYER
 10
4493.6948657097
 20
2949.3418883366
  0
VERTEX
  8
GSLAYER
 10
4493.4228538236
 20
2948.8158774743
  0
VERTEX
  8
GSLAYER
 10
4493.1834490406
 20
2948.2812856843
  0
VERTEX
  8
GSLAYER
 10
4492.9766513606
 20
2947.7381129668
  0
VERTEX
  8
GSLAYER
 10
4492.8024607837
 20
2947.1863593216
  0
VERTEX
  8
GSLAYER
 10
4492.6643096366
 20
2946.6277409344
  0
VERTEX
  8
GSLAYER
 10
4492.5656302457
 20
2946.0639739906
  0
VERTEX
  8
GSLAYER
 10
4492.5064226112
 20
2945.4950584902
  0
VERTEX
  8
GSLAYER
 10
4492.486686733
 20
2944.9209944333
  0
VERTEX
  8
GSLAYER
 10
4492.5604817558
 20
2943.8277842561
  0
VERTEX
  8
GSLAYER
 10
4492.7818668239
 20
2942.744871192
  0
VERTEX
  8
GSLAYER
 10
4493.1508419375
 20
2941.6722552411
  0
VERTEX
  8
GSLAYER
 10
4493.6674070965
 20
2940.6099364033
  0
VERTEX
  8
GSLAYER
 10
4494.3246976477
 20
2939.6025355022
  0
VERTEX
  8
GSLAYER
 10
4495.0883903247
 20
2938.7221323297
  0
VERTEX
  8
GSLAYER
 10
4495.9584851275
 20
2937.9687268857
  0
VERTEX
  8
GSLAYER
 10
4496.934982056
 20
2937.3423191704
  0
VERTEX
  8
GSLAYER
 10
4497.4584118683
 20
2937.0814589711
  0
VERTEX
  8
GSLAYER
 10
4497.9852740073
 20
2936.8480577402
  0
VERTEX
  8
GSLAYER
 10
4498.5155684729
 20
2936.6421154776
  0
VERTEX
  8
GSLAYER
 10
4499.0492952651
 20
2936.4636321834
  0
VERTEX
  8
GSLAYER
 10
4499.5898867106
 20
2936.3194725996
  0
VERTEX
  8
GSLAYER
 10
4500.140775136
 20
2936.2165014683
  0
VERTEX
  8
GSLAYER
 10
4500.7019605414
 20
2936.1547187895
  0
VERTEX
  8
GSLAYER
 10
4501.2734429266
 20
2936.1341245633
  0
VERTEX
  8
GSLAYER
 10
4501.8457833935
 20
2936.1547187895
  0
VERTEX
  8
GSLAYER
 10
4502.4095430438
 20
2936.2165014683
  0
VERTEX
  8
GSLAYER
 10
4502.9647218775
 20
2936.3194725996
  0
VERTEX
  8
GSLAYER
 10
4503.5113198946
 20
2936.4636321834
  0
VERTEX
  8
GSLAYER
 10
4504.0510532585
 20
2936.6421154776
  0
VERTEX
  8
GSLAYER
 10
4504.5856381324
 20
2936.8480577402
  0
VERTEX
  8
GSLAYER
 10
4505.1150745163
 20
2937.0814589711
  0
VERTEX
  8
GSLAYER
 10
4505.6393624103
 20
2937.3423191704
  0
VERTEX
  8
GSLAYER
 10
4506.6141431755
 20
2937.9687268857
  0
VERTEX
  8
GSLAYER
 10
4507.4790894883
 20
2938.7221323297
  0
VERTEX
  8
GSLAYER
 10
4508.2342013487
 20
2939.6025355022
  0
VERTEX
  8
GSLAYER
 10
4508.8794787567
 20
2940.6099364033
  0
VERTEX
  8
GSLAYER
 10
4509.3960439157
 20
2941.6722552411
  0
VERTEX
  8
GSLAYER
 10
4509.7650190293
 20
2942.744871192
  0
VERTEX
  8
GSLAYER
 10
4509.9864040974
 20
2943.8277842561
  0
VERTEX
  8
GSLAYER
 10
4510.0601991202
 20
2944.9209944333
  0
VERTEX
  8
GSLAYER
 10
4509.9864040974
 20
2946.0519606919
  0
VERTEX
  8
GSLAYER
 10
4509.7650190293
 20
2947.1657650954
  0
VERTEX
  8
GSLAYER
 10
4509.3960439157
 20
2948.2624076436
  0
VERTEX
  8
GSLAYER
 10
4508.8794787567
 20
2949.3418883366
  0
VERTEX
  8
GSLAYER
 10
4508.5645627876
 20
2949.849879251
  0
VERTEX
  8
GSLAYER
 10
4508.2239043688
 20
2950.330411197
  0
VERTEX
  8
GSLAYER
 10
4507.8575035002
 20
2950.7834841746
  0
VERTEX
  8
GSLAYER
 10
4507.4653601818
 20
2951.209098184
  0
VERTEX
  8
GSLAYER
 10
4507.0457582502
 20
2951.6038208539
  0
VERTEX
  8
GSLAYER
 10
4506.5969815423
 20
2951.9642198134
  0
VERTEX
  8
GSLAYER
 10
4506.119030058
 20
2952.2902950625
  0
VERTEX
  8
GSLAYER
 10
4505.6119037972
 20
2952.5820466012
  0
VERTEX
  8
GSLAYER
 10
4504.5272885795
 20
2953.0745918458
  0
VERTEX
  8
GSLAYER
 10
4503.4426733619
 20
2953.4264098777
  0
VERTEX
  8
GSLAYER
 10
4502.3580581442
 20
2953.6375006969
  0
VERTEX
  8
GSLAYER
 10
4501.2734429266
 20
2953.7078643033
  0
SEQEND
  0
POLYLINE
  8
GSLAYER
 70
128
 66
1
  0
VERTEX
  8
GSLAYER
 10
4501.6853221232
 20
2944.5091099081
  0
VERTEX
  8
GSLAYER
 10
4509.236440727
 20
2944.5091099081
  0
VERTEX
  8
GSLAYER
 10
4509.236440727
 20
2944.4541919714
  0
VERTEX
  8
GSLAYER
 10
4509.1420517445
 20
2943.5652078713
  0
VERTEX
  8
GSLAYER
 10
4508.9412606361
 20
2942.6830885133
  0
VERTEX
  8
GSLAYER
 10
4508.634067402
 20
2941.8078338973
  0
VERTEX
  8
GSLAYER
 10
4508.2204720421
 20
2940.9394440234
  0
VERTEX
  8
GSLAYER
 10
4507.6232472071
 20
2940.0332980681
  0
VERTEX
  8
GSLAYER
 10
4506.9299172262
 20
2939.2369879861
  0
VERTEX
  8
GSLAYER
 10
4506.1404820994
 20
2938.5505137775
  0
VERTEX
  8
GSLAYER
 10
4505.2549418268
 20
2937.9738754423
  0
VERTEX
  8
GSLAYER
 10
4504.3968601673
 20
2937.5602747316
  0
VERTEX
  8
GSLAYER
 10
4503.5250492012
 20
2937.2530775233
  0
VERTEX
  8
GSLAYER
 10
4502.6395089286
 20
2937.0522838173
  0
VERTEX
  8
GSLAYER
 10
4501.7402393494
 20
2936.9578936136
  0
VERTEX
  8
GSLAYER
 10
4501.6853221232
 20
2936.9578936136
  0
VERTEX
  8
GSLAYER
 10
4501.6853221232
 20
2944.5091099081
  0
SEQEND
  0
POLYLINE
  8
GSLAYER
 70
128
 66
1
  0
VERTEX
  8
GSLAYER
 10
4500.86156373
 20
2944.5091099081
  0
VERTEX
  8
GSLAYER
 10
4500.86156373
 20
2936.9578936136
  0
VERTEX
  8
GSLAYER
 10
4500.8066465038
 20
2936.9578936136
  0
VERTEX
  8
GSLAYER
 10
4499.9176739045
 20
2937.0522838173
  0
VERTEX
  8
GSLAYER
 10
4499.0355659586
 20
2937.2530775233
  0
VERTEX
  8
GSLAYER
 10
4498.1603226658
 20
2937.5602747316
  0
VERTEX
  8
GSLAYER
 10
4497.2919440264
 20
2937.9738754423
  0
VERTEX
  8
GSLAYER
 10
4496.3858097939
 20
2938.5711080038
  0
VERTEX
  8
GSLAYER
 10
4495.5895100139
 20
2939.2644469545
  0
VERTEX
  8
GSLAYER
 10
4494.9030446863
 20
2940.0538922943
  0
VERTEX
  8
GSLAYER
 10
4494.3264138111
 20
2940.9394440234
  0
VERTEX
  8
GSLAYER
 10
4493.9128184512
 20
2941.7975367842
  0
VERTEX
  8
GSLAYER
 10
4493.6056252171
 20
2942.6693590291
  0
VERTEX
  8
GSLAYER
 10
4493.4048341087
 20
2943.5549107582
  0
VERTEX
  8
GSLAYER
 10
4493.3104451262
 20
2944.4541919714
  0
VERTEX
  8
GSLAYER
 10
4493.3104451262
 20
2944.5091099081
  0
VERTEX
  8
GSLAYER
 10
4500.86156373
 20
2944.5091099081
  0
SEQEND
  0
POLYLINE
  8
GSLAYER
 70
128
 66
1
  0
VERTEX
  8
GSLAYER
 10
4501.6853221232
 20
2945.3328789584
  0
VERTEX
  8
GSLAYER
 10
4501.6853221232
 20
2952.8840952529
  0
VERTEX
  8
GSLAYER
 10
4501.7402393494
 20
2952.8840952529
  0
VERTEX
  8
GSLAYER
 10
4502.6292119487
 20
2952.7897050493
  0
VERTEX
  8
GSLAYER
 10
4503.5113198946
 20
2952.5889113432
  0
VERTEX
  8
GSLAYER
 10
4504.3865631874
 20
2952.2817141349
  0
VERTEX
  8
GSLAYER
 10
4505.2549418268
 20
2951.8681134242
  0
VERTEX
  8
GSLAYER
 10
4506.1610760593
 20
2951.2708808627
  0
VERTEX
  8
GSLAYER
 10
4506.9573758393
 20
2950.5775419121
  0
VERTEX
  8
GSLAYER
 10
4507.6438411669
 20
2949.7880965722
  0
VERTEX
  8
GSLAYER
 10
4508.2204720421
 20
2948.9025448431
  0
VERTEX
  8
GSLAYER
 10
4508.634067402
 20
2948.0444520824
  0
VERTEX
  8
GSLAYER
 10
4508.9412606361
 20
2947.1726298375
  0
VERTEX
  8
GSLAYER
 10
4509.1420517445
 20
2946.2870781084
  0
VERTEX
  8
GSLAYER
 10
4509.236440727
 20
2945.3877968951
  0
VERTEX
  8
GSLAYER
 10
4509.236440727
 20
2945.3328789584
  0
VERTEX
  8
GSLAYER
 10
4501.6853221232
 20
2945.3328789584
  0
SEQEND
  0
POLYLINE
  8
GSLAYER
 70
128
 66
1
  0
VERTEX
  8
GSLAYER
 10
4500.86156373
 20
2945.3328789584
  0
VERTEX
  8
GSLAYER
 10
4493.3104451262
 20
2945.3328789584
  0
VERTEX
  8
GSLAYER
 10
4493.3104451262
 20
2945.3877968951
  0
VERTEX
  8
GSLAYER
 10
4493.4048341087
 20
2946.2767809952
  0
VERTEX
  8
GSLAYER
 10
4493.6056252171
 20
2947.1589003533
  0
VERTEX
  8
GSLAYER
 10
4493.9128184512
 20
2948.0341549692
  0
VERTEX
  8
GSLAYER
 10
4494.3264138111
 20
2948.9025448431
  0
VERTEX
  8
GSLAYER
 10
4494.9236386461
 20
2949.8086907984
  0
VERTEX
  8
GSLAYER
 10
4495.616968627
 20
2950.6050008804
  0
VERTEX
  8
GSLAYER
 10
4496.4064037538
 20
2951.291475089
  0
VERTEX
  8
GSLAYER
 10
4497.2919440264
 20
2951.8681134242
  0
VERTEX
  8
GSLAYER
 10
4498.1500256859
 20
2952.2817141349
  0
VERTEX
  8
GSLAYER
 10
4499.021836652
 20
2952.5889113432
  0
VERTEX
  8
GSLAYER
 10
4499.9073769246
 20
2952.7897050493
  0
VERTEX
  8
GSLAYER
 10
4500.8066465038
 20
2952.8840952529
  0
VERTEX
  8
GSLAYER
 10
4500.86156373
 20
2952.8840952529
  0
VERTEX
  8
GSLAYER
 10
4500.86156373
 20
2945.3328789584
  0
SEQEND
  0
POLYLINE
  8
GSLAYER
 70
128
 66
1
  0
VERTEX
  8
GSLAYER
 10
4895.8786756193
 20
3218.9115731064
  0
VERTEX
  8
GSLAYER
 10
4894.7854795851
 20
3218.8412095
  0
VERTEX
  8
GSLAYER
 10
4893.7025805308
 20
3218.6301186809
  0
VERTEX
  8
GSLAYER
 10
4892.6299784564
 20
3218.278300649
  0
VERTEX
  8
GSLAYER
 10
4891.5676733619
 20
3217.7857554043
  0
VERTEX
  8
GSLAYER
 10
4890.5705824735
 20
3217.1507667614
  0
VERTEX
  8
GSLAYER
 10
4889.6936230175
 20
3216.399077503
  0
VERTEX
  8
GSLAYER
 10
4888.9367949938
 20
3215.5306876291
  0
VERTEX
  8
GSLAYER
 10
4888.3000984024
 20
3214.5455971398
  0
VERTEX
  8
GSLAYER
 10
4888.0280865163
 20
3214.0195862774
  0
VERTEX
  8
GSLAYER
 10
4887.7886817333
 20
3213.4849944875
  0
VERTEX
  8
GSLAYER
 10
4887.5818840534
 20
3212.9418217699
  0
VERTEX
  8
GSLAYER
 10
4887.4076934765
 20
3212.3900681248
  0
VERTEX
  8
GSLAYER
 10
4887.2695423293
 20
3211.8314497375
  0
VERTEX
  8
GSLAYER
 10
4887.1708629385
 20
3211.2676827937
  0
VERTEX
  8
GSLAYER
 10
4887.111655304
 20
3210.6987672934
  0
VERTEX
  8
GSLAYER
 10
4887.0919194258
 20
3210.1247032364
  0
VERTEX
  8
GSLAYER
 10
4887.1657144485
 20
3209.0314930592
  0
VERTEX
  8
GSLAYER
 10
4887.3870995167
 20
3207.9485799952
  0
VERTEX
  8
GSLAYER
 10
4887.7560746303
 20
3206.8759640443
  0
VERTEX
  8
GSLAYER
 10
4888.2726397893
 20
3205.8136452065
  0
VERTEX
  8
GSLAYER
 10
4888.9299303405
 20
3204.8062443053
  0
VERTEX
  8
GSLAYER
 10
4889.6936230175
 20
3203.9258411328
  0
VERTEX
  8
GSLAYER
 10
4890.5637178202
 20
3203.1724356889
  0
VERTEX
  8
GSLAYER
 10
4891.5402147488
 20
3202.5460279736
  0
VERTEX
  8
GSLAYER
 10
4892.0636445611
 20
3202.2851677743
  0
VERTEX
  8
GSLAYER
 10
4892.5905067
 20
3202.0517665434
  0
VERTEX
  8
GSLAYER
 10
4893.1208011656
 20
3201.8458242808
  0
VERTEX
  8
GSLAYER
 10
4893.6545279579
 20
3201.6673409866
  0
VERTEX
  8
GSLAYER
 10
4894.1951194034
 20
3201.5231814028
  0
VERTEX
  8
GSLAYER
 10
4894.7460078288
 20
3201.4202102715
  0
VERTEX
  8
GSLAYER
 10
4895.3071932341
 20
3201.3584275927
  0
VERTEX
  8
GSLAYER
 10
4895.8786756193
 20
3201.3378333664
  0
VERTEX
  8
GSLAYER
 10
4896.4510160863
 20
3201.3584275927
  0
VERTEX
  8
GSLAYER
 10
4897.0147757366
 20
3201.4202102715
  0
VERTEX
  8
GSLAYER
 10
4897.5699545703
 20
3201.5231814028
  0
VERTEX
  8
GSLAYER
 10
4898.1165525874
 20
3201.6673409866
  0
VERTEX
  8
GSLAYER
 10
4898.6562859512
 20
3201.8458242808
  0
VERTEX
  8
GSLAYER
 10
4899.1908708251
 20
3202.0517665434
  0
VERTEX
  8
GSLAYER
 10
4899.7203072091
 20
3202.2851677743
  0
VERTEX
  8
GSLAYER
 10
4900.244595103
 20
3202.5460279736
  0
VERTEX
  8
GSLAYER
 10
4901.2193758683
 20
3203.1724356889
  0
VERTEX
  8
GSLAYER
 10
4902.0843221811
 20
3203.9258411328
  0
VERTEX
  8
GSLAYER
 10
4902.8394340414
 20
3204.8062443053
  0
VERTEX
  8
GSLAYER
 10
4903.4847114494
 20
3205.8136452065
  0
VERTEX
  8
GSLAYER
 10
4904.0012766084
 20
3206.8759640443
  0
VERTEX
  8
GSLAYER
 10
4904.370251722
 20
3207.9485799952
  0
VERTEX
  8
GSLAYER
 10
4904.5916367902
 20
3209.0314930592
  0
VERTEX
  8
GSLAYER
 10
4904.6654318129
 20
3210.1247032364
  0
VERTEX
  8
GSLAYER
 10
4904.5916367902
 20
3211.2556694951
  0
VERTEX
  8
GSLAYER
 10
4904.370251722
 20
3212.3694738985
  0
VERTEX
  8
GSLAYER
 10
4904.0012766084
 20
3213.4661164467
  0
VERTEX
  8
GSLAYER
 10
4903.4847114494
 20
3214.5455971398
  0
VERTEX
  8
GSLAYER
 10
4903.1697954804
 20
3215.0535880541
  0
VERTEX
  8
GSLAYER
 10
4902.8291370615
 20
3215.5341200001
  0
VERTEX
  8
GSLAYER
 10
4902.4627361929
 20
3215.9871929778
  0
VERTEX
  8
GSLAYER
 10
4902.0705928745
 20
3216.4128069871
  0
VERTEX
  8
GSLAYER
 10
4901.650990943
 20
3216.8075296571
  0
VERTEX
  8
GSLAYER
 10
4901.2022142351
 20
3217.1679286166
  0
VERTEX
  8
GSLAYER
 10
4900.7242627507
 20
3217.4940038657
  0
VERTEX
  8
GSLAYER
 10
4900.2171364899
 20
3217.7857554043
  0
VERTEX
  8
GSLAYER
 10
4899.1325212723
 20
3218.278300649
  0
VERTEX
  8
GSLAYER
 10
4898.0479060546
 20
3218.6301186809
  0
VERTEX
  8
GSLAYER
 10
4896.963290837
 20
3218.8412095
  0
VERTEX
  8
GSLAYER
 10
4895.8786756193
 20
3218.9115731064
  0
SEQEND
  0
POLYLINE
  8
GSLAYER
 70
128
 66
1
  0
VERTEX
  8
GSLAYER
 10
4896.2905548159
 20
3209.7128187113
  0
VERTEX
  8
GSLAYER
 10
4903.8416734198
 20
3209.7128187113
  0
VERTEX
  8
GSLAYER
 10
4903.8416734198
 20
3209.6579007746
  0
VERTEX
  8
GSLAYER
 10
4903.7472844372
 20
3208.7689166744
  0
VERTEX
  8
GSLAYER
 10
4903.5464933289
 20
3207.8867973164
  0
VERTEX
  8
GSLAYER
 10
4903.2393000948
 20
3207.0115427004
  0
VERTEX
  8
GSLAYER
 10
4902.8257047349
 20
3206.1431528266
  0
VERTEX
  8
GSLAYER
 10
4902.2284798999
 20
3205.2370068712
  0
VERTEX
  8
GSLAYER
 10
4901.535149919
 20
3204.4406967893
  0
VERTEX
  8
GSLAYER
 10
4900.7457147922
 20
3203.7542225807
  0
VERTEX
  8
GSLAYER
 10
4899.8601745196
 20
3203.1775842455
  0
VERTEX
  8
GSLAYER
 10
4899.00209286
 20
3202.7639835348
  0
VERTEX
  8
GSLAYER
 10
4898.130281894
 20
3202.4567863264
  0
VERTEX
  8
GSLAYER
 10
4897.2447416213
 20
3202.2559926204
  0
VERTEX
  8
GSLAYER
 10
4896.3454720421
 20
3202.1616024167
  0
VERTEX
  8
GSLAYER
 10
4896.2905548159
 20
3202.1616024167
  0
VERTEX
  8
GSLAYER
 10
4896.2905548159
 20
3209.7128187113
  0
SEQEND
  0
POLYLINE
  8
GSLAYER
 70
128
 66
1
  0
VERTEX
  8
GSLAYER
 10
4895.4667964228
 20
3209.7128187113
  0
VERTEX
  8
GSLAYER
 10
4895.4667964228
 20
3202.1616024167
  0
VERTEX
  8
GSLAYER
 10
4895.4118791966
 20
3202.1616024167
  0
VERTEX
  8
GSLAYER
 10
4894.5229065973
 20
3202.2559926204
  0
VERTEX
  8
GSLAYER
 10
4893.6407986513
 20
3202.4567863264
  0
VERTEX
  8
GSLAYER
 10
4892.7655553586
 20
3202.7639835348
  0
VERTEX
  8
GSLAYER
 10
4891.8971767191
 20
3203.1775842455
  0
VERTEX
  8
GSLAYER
 10
4890.9910424867
 20
3203.7748168069
  0
VERTEX
  8
GSLAYER
 10
4890.1947427066
 20
3204.4681557576
  0
VERTEX
  8
GSLAYER
 10
4889.508277379
 20
3205.2576010975
  0
VERTEX
  8
GSLAYER
 10
4888.9316465038
 20
3206.1431528266
  0
VERTEX
  8
GSLAYER
 10
4888.5180511439
 20
3207.0012455873
  0
VERTEX
  8
GSLAYER
 10
4888.2108579098
 20
3207.8730678322
  0
VERTEX
  8
GSLAYER
 10
4888.0100668015
 20
3208.7586195613
  0
VERTEX
  8
GSLAYER
 10
4887.9156778189
 20
3209.6579007746
  0
VERTEX
  8
GSLAYER
 10
4887.9156778189
 20
3209.7128187113
  0
VERTEX
  8
GSLAYER
 10
4895.4667964228
 20
3209.7128187113
  0
SEQEND
  0
POLYLINE
  8
GSLAYER
 70
128
 66
1
  0
VERTEX
  8
GSLAYER
 10
4896.2905548159
 20
3210.5365877616
  0
VERTEX
  8
GSLAYER
 10
4896.2905548159
 20
3218.0878040561
  0
VERTEX
  8
GSLAYER
 10
4896.3454720421
 20
3218.0878040561
  0
VERTEX
  8
GSLAYER
 10
4897.2344446414
 20
3217.9934138524
  0
VERTEX
  8
GSLAYER
 10
4898.1165525874
 20
3217.7926201464
  0
VERTEX
  8
GSLAYER
 10
4898.9917958801
 20
3217.485422938
  0
VERTEX
  8
GSLAYER
 10
4899.8601745196
 20
3217.0718222274
  0
VERTEX
  8
GSLAYER
 10
4900.766308752
 20
3216.4745896659
  0
VERTEX
  8
GSLAYER
 10
4901.5626085321
 20
3215.7812507152
  0
VERTEX
  8
GSLAYER
 10
4902.2490738597
 20
3214.9918053753
  0
VERTEX
  8
GSLAYER
 10
4902.8257047349
 20
3214.1062536463
  0
VERTEX
  8
GSLAYER
 10
4903.2393000948
 20
3213.2481608855
  0
VERTEX
  8
GSLAYER
 10
4903.5464933289
 20
3212.3763386406
  0
VERTEX
  8
GSLAYER
 10
4903.7472844372
 20
3211.4907869115
  0
VERTEX
  8
GSLAYER
 10
4903.8416734198
 20
3210.5915056983
  0
VERTEX
  8
GSLAYER
 10
4903.8416734198
 20
3210.5365877616
  0
VERTEX
  8
GSLAYER
 10
4896.2905548159
 20
3210.5365877616
  0
SEQEND
  0
POLYLINE
  8
GSLAYER
 70
128
 66
1
  0
VERTEX
  8
GSLAYER
 10
4895.4667964228
 20
3210.5365877616
  0
VERTEX
  8
GSLAYER
 10
4887.9156778189
 20
3210.5365877616
  0
VERTEX
  8
GSLAYER
 10
4887.9156778189
 20
3210.5915056983
  0
VERTEX
  8
GSLAYER
 10
4888.0100668015
 20
3211.4804897984
  0
VERTEX
  8
GSLAYER
 10
4888.2108579098
 20
3212.3626091564
  0
VERTEX
  8
GSLAYER
 10
4888.5180511439
 20
3213.2378637724
  0
VERTEX
  8
GSLAYER
 10
4888.9316465038
 20
3214.1062536463
  0
VERTEX
  8
GSLAYER
 10
4889.5288713388
 20
3215.0123996016
  0
VERTEX
  8
GSLAYER
 10
4890.2222013197
 20
3215.8087096836
  0
VERTEX
  8
GSLAYER
 10
4891.0116364465
 20
3216.4951838922
  0
VERTEX
  8
GSLAYER
 10
4891.8971767191
 20
3217.0718222274
  0
VERTEX
  8
GSLAYER
 10
4892.7552583787
 20
3217.485422938
  0
VERTEX
  8
GSLAYER
 10
4893.6270693447
 20
3217.7926201464
  0
VERTEX
  8
GSLAYER
 10
4894.5126096174
 20
3217.9934138524
  0
VERTEX
  8
GSLAYER
 10
4895.4118791966
 20
3218.0878040561
  0
VERTEX
  8
GSLAYER
 10
4895.4667964228
 20
3218.0878040561
  0
VERTEX
  8
GSLAYER
 10
4895.4667964228
 20
3210.5365877616
  0
SEQEND
  0
POLYLINE
  8
GSLAYER
 70
128
 66
1
  0
VERTEX
  8
GSLAYER
 10
5103.5656401945
 20
2563.8903646167
  0
VERTEX
  8
GSLAYER
 10
5102.4724441602
 20
2563.8200010103
  0
VERTEX
  8
GSLAYER
 10
5101.3895451059
 20
2563.6089101912
  0
VERTEX
  8
GSLAYER
 10
5100.3169430315
 20
2563.2570921593
  0
VERTEX
  8
GSLAYER
 10
5099.254637937
 20
2562.7645469146
  0
VERTEX
  8
GSLAYER
 10
5098.2575470486
 20
2562.1295582717
  0
VERTEX
  8
GSLAYER
 10
5097.3805875926
 20
2561.3778690133
  0
VERTEX
  8
GSLAYER
 10
5096.6237595689
 20
2560.5094791394
  0
VERTEX
  8
GSLAYER
 10
5095.9870629775
 20
2559.5243886501
  0
VERTEX
  8
GSLAYER
 10
5095.7150510915
 20
2558.9983777877
  0
VERTEX
  8
GSLAYER
 10
5095.4756463085
 20
2558.4637859978
  0
VERTEX
  8
GSLAYER
 10
5095.2688486285
 20
2557.9206132802
  0
VERTEX
  8
GSLAYER
 10
5095.0946580516
 20
2557.3688596351
  0
VERTEX
  8
GSLAYER
 10
5094.9565069044
 20
2556.8102412478
  0
VERTEX
  8
GSLAYER
 10
5094.8578275136
 20
2556.246474304
  0
VERTEX
  8
GSLAYER
 10
5094.7986198791
 20
2555.6775588037
  0
VERTEX
  8
GSLAYER
 10
5094.7788840009
 20
2555.1034947467
  0
VERTEX
  8
GSLAYER
 10
5094.8526790236
 20
2554.0102845695
  0
VERTEX
  8
GSLAYER
 10
5095.0740640918
 20
2552.9273715055
  0
VERTEX
  8
GSLAYER
 10
5095.4430392054
 20
2551.8547555546
  0
VERTEX
  8
GSLAYER
 10
5095.9596043644
 20
2550.7924367168
  0
VERTEX
  8
GSLAYER
 10
5096.6168949156
 20
2549.7850358156
  0
VERTEX
  8
GSLAYER
 10
5097.3805875926
 20
2548.9046326431
  0
VERTEX
  8
GSLAYER
 10
5098.2506823954
 20
2548.1512271992
  0
VERTEX
  8
GSLAYER
 10
5099.2271793239
 20
2547.5248194839
  0
VERTEX
  8
GSLAYER
 10
5099.7506091362
 20
2547.2639592846
  0
VERTEX
  8
GSLAYER
 10
5100.2774712752
 20
2547.0305580537
  0
VERTEX
  8
GSLAYER
 10
5100.8077657408
 20
2546.8246157911
  0
VERTEX
  8
GSLAYER
 10
5101.341492533
 20
2546.6461324969
  0
VERTEX
  8
GSLAYER
 10
5101.8820839785
 20
2546.5019729131
  0
VERTEX
  8
GSLAYER
 10
5102.4329724039
 20
2546.3990017818
  0
VERTEX
  8
GSLAYER
 10
5102.9941578092
 20
2546.337219103
  0
VERTEX
  8
GSLAYER
 10
5103.5656401945
 20
2546.3166248767
  0
VERTEX
  8
GSLAYER
 10
5104.1379806614
 20
2546.337219103
  0
VERTEX
  8
GSLAYER
 10
5104.7017403117
 20
2546.3990017818
  0
VERTEX
  8
GSLAYER
 10
5105.2569191454
 20
2546.5019729131
  0
VERTEX
  8
GSLAYER
 10
5105.8035171625
 20
2546.6461324969
  0
VERTEX
  8
GSLAYER
 10
5106.3432505264
 20
2546.8246157911
  0
VERTEX
  8
GSLAYER
 10
5106.8778354003
 20
2547.0305580537
  0
VERTEX
  8
GSLAYER
 10
5107.4072717842
 20
2547.2639592846
  0
VERTEX
  8
GSLAYER
 10
5107.9315596782
 20
2547.5248194839
  0
VERTEX
  8
GSLAYER
 10
5108.9063404434
 20
2548.1512271992
  0
VERTEX
  8
GSLAYER
 10
5109.7712867562
 20
2548.9046326431
  0
VERTEX
  8
GSLAYER
 10
5110.5263986166
 20
2549.7850358156
  0
VERTEX
  8
GSLAYER
 10
5111.1716760245
 20
2550.7924367168
  0
VERTEX
  8
GSLAYER
 10
5111.6882411836
 20
2551.8547555546
  0
VERTEX
  8
GSLAYER
 10
5112.0572162972
 20
2552.9273715055
  0
VERTEX
  8
GSLAYER
 10
5112.2786013653
 20
2554.0102845695
  0
VERTEX
  8
GSLAYER
 10
5112.352396388
 20
2555.1034947467
  0
VERTEX
  8
GSLAYER
 10
5112.2786013653
 20
2556.2344610054
  0
VERTEX
  8
GSLAYER
 10
5112.0572162972
 20
2557.3482654088
  0
VERTEX
  8
GSLAYER
 10
5111.6882411836
 20
2558.444907957
  0
VERTEX
  8
GSLAYER
 10
5111.1716760245
 20
2559.5243886501
  0
VERTEX
  8
GSLAYER
 10
5110.8567600555
 20
2560.0323795644
  0
VERTEX
  8
GSLAYER
 10
5110.5161016367
 20
2560.5129115104
  0
VERTEX
  8
GSLAYER
 10
5110.149700768
 20
2560.9659844881
  0
VERTEX
  8
GSLAYER
 10
5109.7575574496
 20
2561.3915984974
  0
VERTEX
  8
GSLAYER
 10
5109.3379555181
 20
2561.7863211674
  0
VERTEX
  8
GSLAYER
 10
5108.8891788102
 20
2562.1467201269
  0
VERTEX
  8
GSLAYER
 10
5108.4112273258
 20
2562.472795376
  0
VERTEX
  8
GSLAYER
 10
5107.9041010651
 20
2562.7645469146
  0
VERTEX
  8
GSLAYER
 10
5106.8194858474
 20
2563.2570921593
  0
VERTEX
  8
GSLAYER
 10
5105.7348706298
 20
2563.6089101912
  0
VERTEX
  8
GSLAYER
 10
5104.6502554121
 20
2563.8200010103
  0
VERTEX
  8
GSLAYER
 10
5103.5656401945
 20
2563.8903646167
  0
SEQEND
  0
POLYLINE
  8
GSLAYER
 70
128
 66
1
  0
VERTEX
  8
GSLAYER
 10
5103.9775193911
 20
2554.6916102216
  0
VERTEX
  8
GSLAYER
 10
5111.5286379949
 20
2554.6916102216
  0
VERTEX
  8
GSLAYER
 10
5111.5286379949
 20
2554.6366922849
  0
VERTEX
  8
GSLAYER
 10
5111.4342490123
 20
2553.7477081847
  0
VERTEX
  8
GSLAYER
 10
5111.233457904
 20
2552.8655888267
  0
VERTEX
  8
GSLAYER
 10
5110.9262646699
 20
2551.9903342107
  0
VERTEX
  8
GSLAYER
 10
5110.51266931
 20
2551.1219443369
  0
VERTEX
  8
GSLAYER
 10
5109.915444475
 20
2550.2157983815
  0
VERTEX
  8
GSLAYER
 10
5109.2221144941
 20
2549.4194882996
  0
VERTEX
  8
GSLAYER
 10
5108.4326793673
 20
2548.733014091
  0
VERTEX
  8
GSLAYER
 10
5107.5471390947
 20
2548.1563757558
  0
VERTEX
  8
GSLAYER
 10
5106.6890574352
 20
2547.7427750451
  0
VERTEX
  8
GSLAYER
 10
5105.8172464691
 20
2547.4355778367
  0
VERTEX
  8
GSLAYER
 10
5104.9317061964
 20
2547.2347841307
  0
VERTEX
  8
GSLAYER
 10
5104.0324366173
 20
2547.140393927
  0
VERTEX
  8
GSLAYER
 10
5103.9775193911
 20
2547.140393927
  0
VERTEX
  8
GSLAYER
 10
5103.9775193911
 20
2554.6916102216
  0
SEQEND
  0
POLYLINE
  8
GSLAYER
 70
128
 66
1
  0
VERTEX
  8
GSLAYER
 10
5103.1537609979
 20
2554.6916102216
  0
VERTEX
  8
GSLAYER
 10
5103.1537609979
 20
2547.140393927
  0
VERTEX
  8
GSLAYER
 10
5103.0988437717
 20
2547.140393927
  0
VERTEX
  8
GSLAYER
 10
5102.2098711724
 20
2547.2347841307
  0
VERTEX
  8
GSLAYER
 10
5101.3277632264
 20
2547.4355778367
  0
VERTEX
  8
GSLAYER
 10
5100.4525199337
 20
2547.7427750451
  0
VERTEX
  8
GSLAYER
 10
5099.5841412943
 20
2548.1563757558
  0
VERTEX
  8
GSLAYER
 10
5098.6780070618
 20
2548.7536083172
  0
VERTEX
  8
GSLAYER
 10
5097.8817072818
 20
2549.4469472679
  0
VERTEX
  8
GSLAYER
 10
5097.1952419541
 20
2550.2363926078
  0
VERTEX
  8
GSLAYER
 10
5096.6186110789
 20
2551.1219443369
  0
VERTEX
  8
GSLAYER
 10
5096.2050157191
 20
2551.9800370976
  0
VERTEX
  8
GSLAYER
 10
5095.8978224849
 20
2552.8518593425
  0
VERTEX
  8
GSLAYER
 10
5095.6970313766
 20
2553.7374110716
  0
VERTEX
  8
GSLAYER
 10
5095.6026423941
 20
2554.6366922849
  0
VERTEX
  8
GSLAYER
 10
5095.6026423941
 20
2554.6916102216
  0
VERTEX
  8
GSLAYER
 10
5103.1537609979
 20
2554.6916102216
  0
SEQEND
  0
POLYLINE
  8
GSLAYER
 70
128
 66
1
  0
VERTEX
  8
GSLAYER
 10
5103.9775193911
 20
2555.5153792719
  0
VERTEX
  8
GSLAYER
 10
5103.9775193911
 20
2563.0665955664
  0
VERTEX
  8
GSLAYER
 10
5104.0324366173
 20
2563.0665955664
  0
VERTEX
  8
GSLAYER
 10
5104.9214092165
 20
2562.9722053627
  0
VERTEX
  8
GSLAYER
 10
5105.8035171625
 20
2562.7714116567
  0
VERTEX
  8
GSLAYER
 10
5106.6787604552
 20
2562.4642144483
  0
VERTEX
  8
GSLAYER
 10
5107.5471390947
 20
2562.0506137377
  0
VERTEX
  8
GSLAYER
 10
5108.4532733271
 20
2561.4533811762
  0
VERTEX
  8
GSLAYER
 10
5109.2495731072
 20
2560.7600422255
  0
VERTEX
  8
GSLAYER
 10
5109.9360384348
 20
2559.9705968856
  0
VERTEX
  8
GSLAYER
 10
5110.51266931
 20
2559.0850451566
  0
VERTEX
  8
GSLAYER
 10
5110.9262646699
 20
2558.2269523958
  0
VERTEX
  8
GSLAYER
 10
5111.233457904
 20
2557.3551301509
  0
VERTEX
  8
GSLAYER
 10
5111.4342490123
 20
2556.4695784218
  0
VERTEX
  8
GSLAYER
 10
5111.5286379949
 20
2555.5702972086
  0
VERTEX
  8
GSLAYER
 10
5111.5286379949
 20
2555.5153792719
  0
VERTEX
  8
GSLAYER
 10
5103.9775193911
 20
2555.5153792719
  0
SEQEND
  0
POLYLINE
  8
GSLAYER
 70
128
 66
1
  0
VERTEX
  8
GSLAYER
 10
5103.1537609979
 20
2555.5153792719
  0
VERTEX
  8
GSLAYER
 10
5095.6026423941
 20
2555.5153792719
  0
VERTEX
  8
GSLAYER
 10
5095.6026423941
 20
2555.5702972086
  0
VERTEX
  8
GSLAYER
 10
5095.6970313766
 20
2556.4592813087
  0
VERTEX
  8
GSLAYER
 10
5095.8978224849
 20
2557.3414006667
  0
VERTEX
  8
GSLAYER
 10
5096.2050157191
 20
2558.2166552827
  0
VERTEX
  8
GSLAYER
 10
5096.6186110789
 20
2559.0850451566
  0
VERTEX
  8
GSLAYER
 10
5097.215835914
 20
2559.9911911119
  0
VERTEX
  8
GSLAYER
 10
5097.9091658949
 20
2560.7875011939
  0
VERTEX
  8
GSLAYER
 10
5098.6986010216
 20
2561.4739754025
  0
VERTEX
  8
GSLAYER
 10
5099.5841412943
 20
2562.0506137377
  0
VERTEX
  8
GSLAYER
 10
5100.4422229538
 20
2562.4642144483
  0
VERTEX
  8
GSLAYER
 10
5101.3140339199
 20
2562.7714116567
  0
VERTEX
  8
GSLAYER
 10
5102.1995741925
 20
2562.9722053627
  0
VERTEX
  8
GSLAYER
 10
5103.0988437717
 20
2563.0665955664
  0
VERTEX
  8
GSLAYER
 10
5103.1537609979
 20
2563.0665955664
  0
VERTEX
  8
GSLAYER
 10
5103.1537609979
 20
2555.5153792719
  0
SEQEND
  0
POLYLINE
  8
GSLAYER
 70
128
 66
1
  0
VERTEX
  8
GSLAYER
 10
5854.4338967353
 20
2691.6993809074
  0
VERTEX
  8
GSLAYER
 10
5853.3407007011
 20
2691.629017301
  0
VERTEX
  8
GSLAYER
 10
5852.2578016468
 20
2691.4179264818
  0
VERTEX
  8
GSLAYER
 10
5851.1851995724
 20
2691.0661084499
  0
VERTEX
  8
GSLAYER
 10
5850.1228944779
 20
2690.5735632053
  0
VERTEX
  8
GSLAYER
 10
5849.1258035895
 20
2689.9385745623
  0
VERTEX
  8
GSLAYER
 10
5848.2488441335
 20
2689.1868853039
  0
VERTEX
  8
GSLAYER
 10
5847.4920161098
 20
2688.3184954301
  0
VERTEX
  8
GSLAYER
 10
5846.8553195184
 20
2687.3334049407
  0
VERTEX
  8
GSLAYER
 10
5846.5833076323
 20
2686.8073940784
  0
VERTEX
  8
GSLAYER
 10
5846.3439028493
 20
2686.2728022884
  0
VERTEX
  8
GSLAYER
 10
5846.1371051694
 20
2685.7296295709
  0
VERTEX
  8
GSLAYER
 10
5845.9629145925
 20
2685.1778759257
  0
VERTEX
  8
GSLAYER
 10
5845.8247634453
 20
2684.6192575385
  0
VERTEX
  8
GSLAYER
 10
5845.7260840545
 20
2684.0554905947
  0
VERTEX
  8
GSLAYER
 10
5845.6668764199
 20
2683.4865750943
  0
VERTEX
  8
GSLAYER
 10
5845.6471405418
 20
2682.9125110374
  0
VERTEX
  8
GSLAYER
 10
5845.7209355645
 20
2681.8193008602
  0
VERTEX
  8
GSLAYER
 10
5845.9423206327
 20
2680.7363877962
  0
VERTEX
  8
GSLAYER
 10
5846.3112957462
 20
2679.6637718452
  0
VERTEX
  8
GSLAYER
 10
5846.8278609053
 20
2678.6014530074
  0
VERTEX
  8
GSLAYER
 10
5847.4851514565
 20
2677.5940521063
  0
VERTEX
  8
GSLAYER
 10
5848.2488441335
 20
2676.7136489338
  0
VERTEX
  8
GSLAYER
 10
5849.1189389362
 20
2675.9602434899
  0
VERTEX
  8
GSLAYER
 10
5850.0954358648
 20
2675.3338357745
  0
VERTEX
  8
GSLAYER
 10
5850.6188656771
 20
2675.0729755753
  0
VERTEX
  8
GSLAYER
 10
5851.145727816
 20
2674.8395743443
  0
VERTEX
  8
GSLAYER
 10
5851.6760222816
 20
2674.6336320818
  0
VERTEX
  8
GSLAYER
 10
5852.2097490738
 20
2674.4551487875
  0
VERTEX
  8
GSLAYER
 10
5852.7503405193
 20
2674.3109892037
  0
VERTEX
  8
GSLAYER
 10
5853.3012289448
 20
2674.2080180724
  0
VERTEX
  8
GSLAYER
 10
5853.8624143501
 20
2674.1462353937
  0
VERTEX
  8
GSLAYER
 10
5854.4338967353
 20
2674.1256411674
  0
VERTEX
  8
GSLAYER
 10
5855.0062372022
 20
2674.1462353937
  0
VERTEX
  8
GSLAYER
 10
5855.5699968526
 20
2674.2080180724
  0
VERTEX
  8
GSLAYER
 10
5856.1251756863
 20
2674.3109892037
  0
VERTEX
  8
GSLAYER
 10
5856.6717737034
 20
2674.4551487875
  0
VERTEX
  8
GSLAYER
 10
5857.2115070672
 20
2674.6336320818
  0
VERTEX
  8
GSLAYER
 10
5857.7460919411
 20
2674.8395743443
  0
VERTEX
  8
GSLAYER
 10
5858.275528325
 20
2675.0729755753
  0
VERTEX
  8
GSLAYER
 10
5858.799816219
 20
2675.3338357745
  0
VERTEX
  8
GSLAYER
 10
5859.7745969842
 20
2675.9602434899
  0
VERTEX
  8
GSLAYER
 10
5860.639543297
 20
2676.7136489338
  0
VERTEX
  8
GSLAYER
 10
5861.3946551574
 20
2677.5940521063
  0
VERTEX
  8
GSLAYER
 10
5862.0399325654
 20
2678.6014530074
  0
VERTEX
  8
GSLAYER
 10
5862.5564977244
 20
2679.6637718452
  0
VERTEX
  8
GSLAYER
 10
5862.925472838
 20
2680.7363877962
  0
VERTEX
  8
GSLAYER
 10
5863.1468579062
 20
2681.8193008602
  0
VERTEX
  8
GSLAYER
 10
5863.2206529289
 20
2682.9125110374
  0
VERTEX
  8
GSLAYER
 10
5863.1468579062
 20
2684.043477296
  0
VERTEX
  8
GSLAYER
 10
5862.925472838
 20
2685.1572816995
  0
VERTEX
  8
GSLAYER
 10
5862.5564977244
 20
2686.2539242477
  0
VERTEX
  8
GSLAYER
 10
5862.0399325654
 20
2687.3334049407
  0
VERTEX
  8
GSLAYER
 10
5861.7250165963
 20
2687.8413958551
  0
VERTEX
  8
GSLAYER
 10
5861.3843581775
 20
2688.3219278011
  0
VERTEX
  8
GSLAYER
 10
5861.0179573089
 20
2688.7750007788
  0
VERTEX
  8
GSLAYER
 10
5860.6258139905
 20
2689.2006147881
  0
VERTEX
  8
GSLAYER
 10
5860.206212059
 20
2689.595337458
  0
VERTEX
  8
GSLAYER
 10
5859.757435351
 20
2689.9557364175
  0
VERTEX
  8
GSLAYER
 10
5859.2794838667
 20
2690.2818116666
  0
VERTEX
  8
GSLAYER
 10
5858.7723576059
 20
2690.5735632053
  0
VERTEX
  8
GSLAYER
 10
5857.6877423883
 20
2691.0661084499
  0
VERTEX
  8
GSLAYER
 10
5856.6031271706
 20
2691.4179264818
  0
VERTEX
  8
GSLAYER
 10
5855.518511953
 20
2691.629017301
  0
VERTEX
  8
GSLAYER
 10
5854.4338967353
 20
2691.6993809074
  0
SEQEND
  0
POLYLINE
  8
GSLAYER
 70
128
 66
1
  0
VERTEX
  8
GSLAYER
 10
5854.8457759319
 20
2682.5006265122
  0
VERTEX
  8
GSLAYER
 10
5862.3968945358
 20
2682.5006265122
  0
VERTEX
  8
GSLAYER
 10
5862.3968945358
 20
2682.4457085755
  0
VERTEX
  8
GSLAYER
 10
5862.3025055532
 20
2681.5567244754
  0
VERTEX
  8
GSLAYER
 10
5862.1017144449
 20
2680.6746051174
  0
VERTEX
  8
GSLAYER
 10
5861.7945212108
 20
2679.7993505014
  0
VERTEX
  8
GSLAYER
 10
5861.3809258509
 20
2678.9309606276
  0
VERTEX
  8
GSLAYER
 10
5860.7837010158
 20
2678.0248146722
  0
VERTEX
  8
GSLAYER
 10
5860.0903710349
 20
2677.2285045902
  0
VERTEX
  8
GSLAYER
 10
5859.3009359082
 20
2676.5420303817
  0
VERTEX
  8
GSLAYER
 10
5858.4153956355
 20
2675.9653920464
  0
VERTEX
  8
GSLAYER
 10
5857.557313976
 20
2675.5517913358
  0
VERTEX
  8
GSLAYER
 10
5856.6855030099
 20
2675.2445941274
  0
VERTEX
  8
GSLAYER
 10
5855.7999627373
 20
2675.0438004214
  0
VERTEX
  8
GSLAYER
 10
5854.9006931581
 20
2674.9494102177
  0
VERTEX
  8
GSLAYER
 10
5854.8457759319
 20
2674.9494102177
  0
VERTEX
  8
GSLAYER
 10
5854.8457759319
 20
2682.5006265122
  0
SEQEND
  0
POLYLINE
  8
GSLAYER
 70
128
 66
1
  0
VERTEX
  8
GSLAYER
 10
5854.0220175388
 20
2682.5006265122
  0
VERTEX
  8
GSLAYER
 10
5854.0220175388
 20
2674.9494102177
  0
VERTEX
  8
GSLAYER
 10
5853.9671003126
 20
2674.9494102177
  0
VERTEX
  8
GSLAYER
 10
5853.0781277133
 20
2675.0438004214
  0
VERTEX
  8
GSLAYER
 10
5852.1960197673
 20
2675.2445941274
  0
VERTEX
  8
GSLAYER
 10
5851.3207764746
 20
2675.5517913358
  0
VERTEX
  8
GSLAYER
 10
5850.4523978351
 20
2675.9653920464
  0
VERTEX
  8
GSLAYER
 10
5849.5462636027
 20
2676.5626246079
  0
VERTEX
  8
GSLAYER
 10
5848.7499638226
 20
2677.2559635586
  0
VERTEX
  8
GSLAYER
 10
5848.063498495
 20
2678.0454088985
  0
VERTEX
  8
GSLAYER
 10
5847.4868676198
 20
2678.9309606276
  0
VERTEX
  8
GSLAYER
 10
5847.0732722599
 20
2679.7890533883
  0
VERTEX
  8
GSLAYER
 10
5846.7660790258
 20
2680.6608756332
  0
VERTEX
  8
GSLAYER
 10
5846.5652879175
 20
2681.5464273623
  0
VERTEX
  8
GSLAYER
 10
5846.4708989349
 20
2682.4457085755
  0
VERTEX
  8
GSLAYER
 10
5846.4708989349
 20
2682.5006265122
  0
VERTEX
  8
GSLAYER
 10
5854.0220175388
 20
2682.5006265122
  0
SEQEND
  0
POLYLINE
  8
GSLAYER
 70
128
 66
1
  0
VERTEX
  8
GSLAYER
 10
5854.8457759319
 20
2683.3243955625
  0
VERTEX
  8
GSLAYER
 10
5854.8457759319
 20
2690.8756118571
  0
VERTEX
  8
GSLAYER
 10
5854.9006931581
 20
2690.8756118571
  0
VERTEX
  8
GSLAYER
 10
5855.7896657574
 20
2690.7812216534
  0
VERTEX
  8
GSLAYER
 10
5856.6717737034
 20
2690.5804279474
  0
VERTEX
  8
GSLAYER
 10
5857.5470169961
 20
2690.273230739
  0
VERTEX
  8
GSLAYER
 10
5858.4153956355
 20
2689.8596300283
  0
VERTEX
  8
GSLAYER
 10
5859.321529868
 20
2689.2623974669
  0
VERTEX
  8
GSLAYER
 10
5860.117829648
 20
2688.5690585162
  0
VERTEX
  8
GSLAYER
 10
5860.8042949757
 20
2687.7796131763
  0
VERTEX
  8
GSLAYER
 10
5861.3809258509
 20
2686.8940614472
  0
VERTEX
  8
GSLAYER
 10
5861.7945212108
 20
2686.0359686865
  0
VERTEX
  8
GSLAYER
 10
5862.1017144449
 20
2685.1641464416
  0
VERTEX
  8
GSLAYER
 10
5862.3025055532
 20
2684.2785947125
  0
VERTEX
  8
GSLAYER
 10
5862.3968945358
 20
2683.3793134992
  0
VERTEX
  8
GSLAYER
 10
5862.3968945358
 20
2683.3243955625
  0
VERTEX
  8
GSLAYER
 10
5854.8457759319
 20
2683.3243955625
  0
SEQEND
  0
POLYLINE
  8
GSLAYER
 70
128
 66
1
  0
VERTEX
  8
GSLAYER
 10
5854.0220175388
 20
2683.3243955625
  0
VERTEX
  8
GSLAYER
 10
5846.4708989349
 20
2683.3243955625
  0
VERTEX
  8
GSLAYER
 10
5846.4708989349
 20
2683.3793134992
  0
VERTEX
  8
GSLAYER
 10
5846.5652879175
 20
2684.2682975994
  0
VERTEX
  8
GSLAYER
 10
5846.7660790258
 20
2685.1504169574
  0
VERTEX
  8
GSLAYER
 10
5847.0732722599
 20
2686.0256715734
  0
VERTEX
  8
GSLAYER
 10
5847.4868676198
 20
2686.8940614472
  0
VERTEX
  8
GSLAYER
 10
5848.0840924548
 20
2687.8002074026
  0
VERTEX
  8
GSLAYER
 10
5848.7774224357
 20
2688.5965174845
  0
VERTEX
  8
GSLAYER
 10
5849.5668575625
 20
2689.2829916931
  0
VERTEX
  8
GSLAYER
 10
5850.4523978351
 20
2689.8596300283
  0
VERTEX
  8
GSLAYER
 10
5851.3104794947
 20
2690.273230739
  0
VERTEX
  8
GSLAYER
 10
5852.1822904607
 20
2690.5804279474
  0
VERTEX
  8
GSLAYER
 10
5853.0678307334
 20
2690.7812216534
  0
VERTEX
  8
GSLAYER
 10
5853.9671003126
 20
2690.8756118571
  0
VERTEX
  8
GSLAYER
 10
5854.0220175388
 20
2690.8756118571
  0
VERTEX
  8
GSLAYER
 10
5854.0220175388
 20
2683.3243955625
  0
SEQEND
  0
POLYLINE
  8
GSLAYER
 70
128
 66
1
  0
VERTEX
  8
GSLAYER
 10
5554.086594119
 20
2033.4829470104
  0
VERTEX
  8
GSLAYER
 10
5552.9933980848
 20
2033.412583404
  0
VERTEX
  8
GSLAYER
 10
5551.9104990304
 20
2033.2014925849
  0
VERTEX
  8
GSLAYER
 10
5550.837896956
 20
2032.849674553
  0
VERTEX
  8
GSLAYER
 10
5549.7755918615
 20
2032.3571293083
  0
VERTEX
  8
GSLAYER
 10
5548.7785009732
 20
2031.7221406654
  0
VERTEX
  8
GSLAYER
 10
5547.9015415171
 20
2030.970451407
  0
VERTEX
  8
GSLAYER
 10
5547.1447134934
 20
2030.1020615331
  0
VERTEX
  8
GSLAYER
 10
5546.508016902
 20
2029.1169710438
  0
VERTEX
  8
GSLAYER
 10
5546.236005016
 20
2028.5909601814
  0
VERTEX
  8
GSLAYER
 10
5545.996600233
 20
2028.0563683915
  0
VERTEX
  8
GSLAYER
 10
5545.789802553
 20
2027.5131956739
  0
VERTEX
  8
GSLAYER
 10
5545.6156119761
 20
2026.9614420288
  0
VERTEX
  8
GSLAYER
 10
5545.477460829
 20
2026.4028236415
  0
VERTEX
  8
GSLAYER
 10
5545.3787814381
 20
2025.8390566977
  0
VERTEX
  8
GSLAYER
 10
5545.3195738036
 20
2025.2701411974
  0
VERTEX
  8
GSLAYER
 10
5545.2998379254
 20
2024.6960771404
  0
VERTEX
  8
GSLAYER
 10
5545.3736329482
 20
2023.6028669632
  0
VERTEX
  8
GSLAYER
 10
5545.5950180163
 20
2022.5199538992
  0
VERTEX
  8
GSLAYER
 10
5545.9639931299
 20
2021.4473379483
  0
VERTEX
  8
GSLAYER
 10
5546.4805582889
 20
2020.3850191105
  0
VERTEX
  8
GSLAYER
 10
5547.1378488401
 20
2019.3776182094
  0
VERTEX
  8
GSLAYER
 10
5547.9015415171
 20
2018.4972150368
  0
VERTEX
  8
GSLAYER
 10
5548.7716363199
 20
2017.7438095929
  0
VERTEX
  8
GSLAYER
 10
5549.7481332484
 20
2017.1174018776
  0
VERTEX
  8
GSLAYER
 10
5550.2715630607
 20
2016.8565416783
  0
VERTEX
  8
GSLAYER
 10
5550.7984251997
 20
2016.6231404474
  0
VERTEX
  8
GSLAYER
 10
5551.3287196653
 20
2016.4171981848
  0
VERTEX
  8
GSLAYER
 10
5551.8624464575
 20
2016.2387148906
  0
VERTEX
  8
GSLAYER
 10
5552.403037903
 20
2016.0945553068
  0
VERTEX
  8
GSLAYER
 10
5552.9539263284
 20
2015.9915841755
  0
VERTEX
  8
GSLAYER
 10
5553.5151117338
 20
2015.9298014967
  0
VERTEX
  8
GSLAYER
 10
5554.086594119
 20
2015.9092072704
  0
VERTEX
  8
GSLAYER
 10
5554.6589345859
 20
2015.9298014967
  0
VERTEX
  8
GSLAYER
 10
5555.2226942362
 20
2015.9915841755
  0
VERTEX
  8
GSLAYER
 10
5555.7778730699
 20
2016.0945553068
  0
VERTEX
  8
GSLAYER
 10
5556.324471087
 20
2016.2387148906
  0
VERTEX
  8
GSLAYER
 10
5556.8642044509
 20
2016.4171981848
  0
VERTEX
  8
GSLAYER
 10
5557.3987893248
 20
2016.6231404474
  0
VERTEX
  8
GSLAYER
 10
5557.9282257087
 20
2016.8565416783
  0
VERTEX
  8
GSLAYER
 10
5558.4525136027
 20
2017.1174018776
  0
VERTEX
  8
GSLAYER
 10
5559.4272943679
 20
2017.7438095929
  0
VERTEX
  8
GSLAYER
 10
5560.2922406807
 20
2018.4972150368
  0
VERTEX
  8
GSLAYER
 10
5561.0473525411
 20
2019.3776182094
  0
VERTEX
  8
GSLAYER
 10
5561.692629949
 20
2020.3850191105
  0
VERTEX
  8
GSLAYER
 10
5562.2091951081
 20
2021.4473379483
  0
VERTEX
  8
GSLAYER
 10
5562.5781702217
 20
2022.5199538992
  0
VERTEX
  8
GSLAYER
 10
5562.7995552898
 20
2023.6028669632
  0
VERTEX
  8
GSLAYER
 10
5562.8733503126
 20
2024.6960771404
  0
VERTEX
  8
GSLAYER
 10
5562.7995552898
 20
2025.8270433991
  0
VERTEX
  8
GSLAYER
 10
5562.5781702217
 20
2026.9408478025
  0
VERTEX
  8
GSLAYER
 10
5562.2091951081
 20
2028.0374903507
  0
VERTEX
  8
GSLAYER
 10
5561.692629949
 20
2029.1169710438
  0
VERTEX
  8
GSLAYER
 10
5561.37771398
 20
2029.6249619581
  0
VERTEX
  8
GSLAYER
 10
5561.0370555612
 20
2030.1054939041
  0
VERTEX
  8
GSLAYER
 10
5560.6706546926
 20
2030.5585668818
  0
VERTEX
  8
GSLAYER
 10
5560.2785113741
 20
2030.9841808911
  0
VERTEX
  8
GSLAYER
 10
5559.8589094426
 20
2031.3789035611
  0
VERTEX
  8
GSLAYER
 10
5559.4101327347
 20
2031.7393025206
  0
VERTEX
  8
GSLAYER
 10
5558.9321812503
 20
2032.0653777697
  0
VERTEX
  8
GSLAYER
 10
5558.4250549896
 20
2032.3571293083
  0
VERTEX
  8
GSLAYER
 10
5557.3404397719
 20
2032.849674553
  0
VERTEX
  8
GSLAYER
 10
5556.2558245543
 20
2033.2014925849
  0
VERTEX
  8
GSLAYER
 10
5555.1712093366
 20
2033.412583404
  0
VERTEX
  8
GSLAYER
 10
5554.086594119
 20
2033.4829470104
  0
SEQEND
  0
POLYLINE
  8
GSLAYER
 70
128
 66
1
  0
VERTEX
  8
GSLAYER
 10
5554.4984733156
 20
2024.2841926153
  0
VERTEX
  8
GSLAYER
 10
5562.0495919194
 20
2024.2841926153
  0
VERTEX
  8
GSLAYER
 10
5562.0495919194
 20
2024.2292746786
  0
VERTEX
  8
GSLAYER
 10
5561.9552029369
 20
2023.3402905785
  0
VERTEX
  8
GSLAYER
 10
5561.7544118285
 20
2022.4581712204
  0
VERTEX
  8
GSLAYER
 10
5561.4472185944
 20
2021.5829166045
  0
VERTEX
  8
GSLAYER
 10
5561.0336232345
 20
2020.7145267306
  0
VERTEX
  8
GSLAYER
 10
5560.4363983995
 20
2019.8083807752
  0
VERTEX
  8
GSLAYER
 10
5559.7430684186
 20
2019.0120706933
  0
VERTEX
  8
GSLAYER
 10
5558.9536332918
 20
2018.3255964847
  0
VERTEX
  8
GSLAYER
 10
5558.0680930192
 20
2017.7489581495
  0
VERTEX
  8
GSLAYER
 10
5557.2100113597
 20
2017.3353574388
  0
VERTEX
  8
GSLAYER
 10
5556.3382003936
 20
2017.0281602304
  0
VERTEX
  8
GSLAYER
 10
5555.452660121
 20
2016.8273665244
  0
VERTEX
  8
GSLAYER
 10
5554.5533905418
 20
2016.7329763207
  0
VERTEX
  8
GSLAYER
 10
5554.4984733156
 20
2016.7329763207
  0
VERTEX
  8
GSLAYER
 10
5554.4984733156
 20
2024.2841926153
  0
SEQEND
  0
POLYLINE
  8
GSLAYER
 70
128
 66
1
  0
VERTEX
  8
GSLAYER
 10
5553.6747149224
 20
2024.2841926153
  0
VERTEX
  8
GSLAYER
 10
5553.6747149224
 20
2016.7329763207
  0
VERTEX
  8
GSLAYER
 10
5553.6197976962
 20
2016.7329763207
  0
VERTEX
  8
GSLAYER
 10
5552.7308250969
 20
2016.8273665244
  0
VERTEX
  8
GSLAYER
 10
5551.8487171509
 20
2017.0281602304
  0
VERTEX
  8
GSLAYER
 10
5550.9734738582
 20
2017.3353574388
  0
VERTEX
  8
GSLAYER
 10
5550.1050952188
 20
2017.7489581495
  0
VERTEX
  8
GSLAYER
 10
5549.1989609863
 20
2018.3461907109
  0
VERTEX
  8
GSLAYER
 10
5548.4026612063
 20
2019.0395296616
  0
VERTEX
  8
GSLAYER
 10
5547.7161958787
 20
2019.8289750015
  0
VERTEX
  8
GSLAYER
 10
5547.1395650035
 20
2020.7145267306
  0
VERTEX
  8
GSLAYER
 10
5546.7259696436
 20
2021.5726194913
  0
VERTEX
  8
GSLAYER
 10
5546.4187764095
 20
2022.4444417362
  0
VERTEX
  8
GSLAYER
 10
5546.2179853011
 20
2023.3299934653
  0
VERTEX
  8
GSLAYER
 10
5546.1235963186
 20
2024.2292746786
  0
VERTEX
  8
GSLAYER
 10
5546.1235963186
 20
2024.2841926153
  0
VERTEX
  8
GSLAYER
 10
5553.6747149224
 20
2024.2841926153
  0
SEQEND
  0
POLYLINE
  8
GSLAYER
 70
128
 66
1
  0
VERTEX
  8
GSLAYER
 10
5554.4984733156
 20
2025.1079616656
  0
VERTEX
  8
GSLAYER
 10
5554.4984733156
 20
2032.6591779601
  0
VERTEX
  8
GSLAYER
 10
5554.5533905418
 20
2032.6591779601
  0
VERTEX
  8
GSLAYER
 10
5555.442363141
 20
2032.5647877564
  0
VERTEX
  8
GSLAYER
 10
5556.324471087
 20
2032.3639940504
  0
VERTEX
  8
GSLAYER
 10
5557.1997143798
 20
2032.0567968421
  0
VERTEX
  8
GSLAYER
 10
5558.0680930192
 20
2031.6431961314
  0
VERTEX
  8
GSLAYER
 10
5558.9742272517
 20
2031.0459635699
  0
VERTEX
  8
GSLAYER
 10
5559.7705270317
 20
2030.3526246192
  0
VERTEX
  8
GSLAYER
 10
5560.4569923593
 20
2029.5631792793
  0
VERTEX
  8
GSLAYER
 10
5561.0336232345
 20
2028.6776275503
  0
VERTEX
  8
GSLAYER
 10
5561.4472185944
 20
2027.8195347895
  0
VERTEX
  8
GSLAYER
 10
5561.7544118285
 20
2026.9477125446
  0
VERTEX
  8
GSLAYER
 10
5561.9552029369
 20
2026.0621608155
  0
VERTEX
  8
GSLAYER
 10
5562.0495919194
 20
2025.1628796023
  0
VERTEX
  8
GSLAYER
 10
5562.0495919194
 20
2025.1079616656
  0
VERTEX
  8
GSLAYER
 10
5554.4984733156
 20
2025.1079616656
  0
SEQEND
  0
POLYLINE
  8
GSLAYER
 70
128
 66
1
  0
VERTEX
  8
GSLAYER
 10
5553.6747149224
 20
2025.1079616656
  0
VERTEX
  8
GSLAYER
 10
5546.1235963186
 20
2025.1079616656
  0
VERTEX
  8
GSLAYER
 10
5546.1235963186
 20
2025.1628796023
  0
VERTEX
  8
GSLAYER
 10
5546.2179853011
 20
2026.0518637024
  0
VERTEX
  8
GSLAYER
 10
5546.4187764095
 20
2026.9339830604
  0
VERTEX
  8
GSLAYER
 10
5546.7259696436
 20
2027.8092376764
  0
VERTEX
  8
GSLAYER
 10
5547.1395650035
 20
2028.6776275503
  0
VERTEX
  8
GSLAYER
 10
5547.7367898385
 20
2029.5837735056
  0
VERTEX
  8
GSLAYER
 10
5548.4301198194
 20
2030.3800835876
  0
VERTEX
  8
GSLAYER
 10
5549.2195549462
 20
2031.0665577962
  0
VERTEX
  8
GSLAYER
 10
5550.1050952188
 20
2031.6431961314
  0
VERTEX
  8
GSLAYER
 10
5550.9631768783
 20
2032.0567968421
  0
VERTEX
  8
GSLAYER
 10
5551.8349878444
 20
2032.3639940504
  0
VERTEX
  8
GSLAYER
 10
5552.720528117
 20
2032.5647877564
  0
VERTEX
  8
GSLAYER
 10
5553.6197976962
 20
2032.6591779601
  0
VERTEX
  8
GSLAYER
 10
5553.6747149224
 20
2032.6591779601
  0
VERTEX
  8
GSLAYER
 10
5553.6747149224
 20
2025.1079616656
  0
SEQEND
  0
POLYLINE
  8
GSLAYER
 70
128
 66
1
  0
VERTEX
  8
GSLAYER
 10
5942.301458671
 20
4011.3274741086
  0
VERTEX
  8
GSLAYER
 10
5941.2082626367
 20
4011.2571105022
  0
VERTEX
  8
GSLAYER
 10
5940.1253635824
 20
4011.0460196831
  0
VERTEX
  8
GSLAYER
 10
5939.052761508
 20
4010.6942016511
  0
VERTEX
  8
GSLAYER
 10
5937.9904564135
 20
4010.2016564065
  0
VERTEX
  8
GSLAYER
 10
5936.9933655251
 20
4009.5666677635
  0
VERTEX
  8
GSLAYER
 10
5936.1164060691
 20
4008.8149785051
  0
VERTEX
  8
GSLAYER
 10
5935.3595780454
 20
4007.9465886313
  0
VERTEX
  8
GSLAYER
 10
5934.722881454
 20
4006.9614981419
  0
VERTEX
  8
GSLAYER
 10
5934.450869568
 20
4006.4354872796
  0
VERTEX
  8
GSLAYER
 10
5934.2114647849
 20
4005.9008954896
  0
VERTEX
  8
GSLAYER
 10
5934.004667105
 20
4005.3577227721
  0
VERTEX
  8
GSLAYER
 10
5933.8304765281
 20
4004.8059691269
  0
VERTEX
  8
GSLAYER
 10
5933.6923253809
 20
4004.2473507397
  0
VERTEX
  8
GSLAYER
 10
5933.5936459901
 20
4003.6835837959
  0
VERTEX
  8
GSLAYER
 10
5933.5344383556
 20
4003.1146682955
  0
VERTEX
  8
GSLAYER
 10
5933.5147024774
 20
4002.5406042386
  0
VERTEX
  8
GSLAYER
 10
5933.5884975001
 20
4001.4473940614
  0
VERTEX
  8
GSLAYER
 10
5933.8098825683
 20
4000.3644809974
  0
VERTEX
  8
GSLAYER
 10
5934.1788576819
 20
3999.2918650464
  0
VERTEX
  8
GSLAYER
 10
5934.6954228409
 20
3998.2295462086
  0
VERTEX
  8
GSLAYER
 10
5935.3527133921
 20
3997.2221453075
  0
VERTEX
  8
GSLAYER
 10
5936.1164060691
 20
3996.341742135
  0
VERTEX
  8
GSLAYER
 10
5936.9865008719
 20
3995.5883366911
  0
VERTEX
  8
GSLAYER
 10
5937.9629978004
 20
3994.9619289757
  0
VERTEX
  8
GSLAYER
 10
5938.4864276127
 20
3994.7010687765
  0
VERTEX
  8
GSLAYER
 10
5939.0132897517
 20
3994.4676675455
  0
VERTEX
  8
GSLAYER
 10
5939.5435842172
 20
3994.261725283
  0
VERTEX
  8
GSLAYER
 10
5940.0773110095
 20
3994.0832419887
  0
VERTEX
  8
GSLAYER
 10
5940.617902455
 20
3993.9390824049
  0
VERTEX
  8
GSLAYER
 10
5941.1687908804
 20
3993.8361112736
  0
VERTEX
  8
GSLAYER
 10
5941.7299762857
 20
3993.7743285949
  0
VERTEX
  8
GSLAYER
 10
5942.301458671
 20
3993.7537343686
  0
VERTEX
  8
GSLAYER
 10
5942.8737991379
 20
3993.7743285949
  0
VERTEX
  8
GSLAYER
 10
5943.4375587882
 20
3993.8361112736
  0
VERTEX
  8
GSLAYER
 10
5943.9927376219
 20
3993.9390824049
  0
VERTEX
  8
GSLAYER
 10
5944.539335639
 20
3994.0832419887
  0
VERTEX
  8
GSLAYER
 10
5945.0790690029
 20
3994.261725283
  0
VERTEX
  8
GSLAYER
 10
5945.6136538767
 20
3994.4676675455
  0
VERTEX
  8
GSLAYER
 10
5946.1430902607
 20
3994.7010687765
  0
VERTEX
  8
GSLAYER
 10
5946.6673781546
 20
3994.9619289757
  0
VERTEX
  8
GSLAYER
 10
5947.6421589199
 20
3995.5883366911
  0
VERTEX
  8
GSLAYER
 10
5948.5071052327
 20
3996.341742135
  0
VERTEX
  8
GSLAYER
 10
5949.2622170931
 20
3997.2221453075
  0
VERTEX
  8
GSLAYER
 10
5949.907494501
 20
3998.2295462086
  0
VERTEX
  8
GSLAYER
 10
5950.4240596601
 20
3999.2918650464
  0
VERTEX
  8
GSLAYER
 10
5950.7930347737
 20
4000.3644809974
  0
VERTEX
  8
GSLAYER
 10
5951.0144198418
 20
4001.4473940614
  0
VERTEX
  8
GSLAYER
 10
5951.0882148645
 20
4002.5406042386
  0
VERTEX
  8
GSLAYER
 10
5951.0144198418
 20
4003.6715704972
  0
VERTEX
  8
GSLAYER
 10
5950.7930347737
 20
4004.7853749007
  0
VERTEX
  8
GSLAYER
 10
5950.4240596601
 20
4005.8820174489
  0
VERTEX
  8
GSLAYER
 10
5949.907494501
 20
4006.9614981419
  0
VERTEX
  8
GSLAYER
 10
5949.592578532
 20
4007.4694890563
  0
VERTEX
  8
GSLAYER
 10
5949.2519201131
 20
4007.9500210023
  0
VERTEX
  8
GSLAYER
 10
5948.8855192445
 20
4008.40309398
  0
VERTEX
  8
GSLAYER
 10
5948.4933759261
 20
4008.8287079893
  0
VERTEX
  8
GSLAYER
 10
5948.0737739946
 20
4009.2234306592
  0
VERTEX
  8
GSLAYER
 10
5947.6249972867
 20
4009.5838296187
  0
VERTEX
  8
GSLAYER
 10
5947.1470458023
 20
4009.9099048678
  0
VERTEX
  8
GSLAYER
 10
5946.6399195415
 20
4010.2016564065
  0
VERTEX
  8
GSLAYER
 10
5945.5553043239
 20
4010.6942016511
  0
VERTEX
  8
GSLAYER
 10
5944.4706891063
 20
4011.0460196831
  0
VERTEX
  8
GSLAYER
 10
5943.3860738886
 20
4011.2571105022
  0
VERTEX
  8
GSLAYER
 10
5942.301458671
 20
4011.3274741086
  0
SEQEND
  0
POLYLINE
  8
GSLAYER
 70
128
 66
1
  0
VERTEX
  8
GSLAYER
 10
5942.7133378675
 20
4002.1287197134
  0
VERTEX
  8
GSLAYER
 10
5950.2644564714
 20
4002.1287197134
  0
VERTEX
  8
GSLAYER
 10
5950.2644564714
 20
4002.0738017767
  0
VERTEX
  8
GSLAYER
 10
5950.1700674888
 20
4001.1848176766
  0
VERTEX
  8
GSLAYER
 10
5949.9692763805
 20
4000.3026983186
  0
VERTEX
  8
GSLAYER
 10
5949.6620831464
 20
3999.4274437026
  0
VERTEX
  8
GSLAYER
 10
5949.2484877865
 20
3998.5590538288
  0
VERTEX
  8
GSLAYER
 10
5948.6512629515
 20
3997.6529078734
  0
VERTEX
  8
GSLAYER
 10
5947.9579329706
 20
3996.8565977914
  0
VERTEX
  8
GSLAYER
 10
5947.1684978438
 20
3996.1701235829
  0
VERTEX
  8
GSLAYER
 10
5946.2829575712
 20
3995.5934852476
  0
VERTEX
  8
GSLAYER
 10
5945.4248759116
 20
3995.179884537
  0
VERTEX
  8
GSLAYER
 10
5944.5530649456
 20
3994.8726873286
  0
VERTEX
  8
GSLAYER
 10
5943.6675246729
 20
3994.6718936226
  0
VERTEX
  8
GSLAYER
 10
5942.7682550938
 20
3994.5775034189
  0
VERTEX
  8
GSLAYER
 10
5942.7133378675
 20
3994.5775034189
  0
VERTEX
  8
GSLAYER
 10
5942.7133378675
 20
4002.1287197134
  0
SEQEND
  0
POLYLINE
  8
GSLAYER
 70
128
 66
1
  0
VERTEX
  8
GSLAYER
 10
5941.8895794744
 20
4002.1287197134
  0
VERTEX
  8
GSLAYER
 10
5941.8895794744
 20
3994.5775034189
  0
VERTEX
  8
GSLAYER
 10
5941.8346622482
 20
3994.5775034189
  0
VERTEX
  8
GSLAYER
 10
5940.9456896489
 20
3994.6718936226
  0
VERTEX
  8
GSLAYER
 10
5940.0635817029
 20
3994.8726873286
  0
VERTEX
  8
GSLAYER
 10
5939.1883384102
 20
3995.179884537
  0
VERTEX
  8
GSLAYER
 10
5938.3199597708
 20
3995.5934852476
  0
VERTEX
  8
GSLAYER
 10
5937.4138255383
 20
3996.1907178091
  0
VERTEX
  8
GSLAYER
 10
5936.6175257583
 20
3996.8840567598
  0
VERTEX
  8
GSLAYER
 10
5935.9310604306
 20
3997.6735020997
  0
VERTEX
  8
GSLAYER
 10
5935.3544295554
 20
3998.5590538288
  0
VERTEX
  8
GSLAYER
 10
5934.9408341955
 20
3999.4171465895
  0
VERTEX
  8
GSLAYER
 10
5934.6336409614
 20
4000.2889688344
  0
VERTEX
  8
GSLAYER
 10
5934.4328498531
 20
4001.1745205635
  0
VERTEX
  8
GSLAYER
 10
5934.3384608706
 20
4002.0738017767
  0
VERTEX
  8
GSLAYER
 10
5934.3384608706
 20
4002.1287197134
  0
VERTEX
  8
GSLAYER
 10
5941.8895794744
 20
4002.1287197134
  0
SEQEND
  0
POLYLINE
  8
GSLAYER
 70
128
 66
1
  0
VERTEX
  8
GSLAYER
 10
5942.7133378675
 20
4002.9524887637
  0
VERTEX
  8
GSLAYER
 10
5942.7133378675
 20
4010.5037050583
  0
VERTEX
  8
GSLAYER
 10
5942.7682550938
 20
4010.5037050583
  0
VERTEX
  8
GSLAYER
 10
5943.657227693
 20
4010.4093148546
  0
VERTEX
  8
GSLAYER
 10
5944.539335639
 20
4010.2085211486
  0
VERTEX
  8
GSLAYER
 10
5945.4145789317
 20
4009.9013239402
  0
VERTEX
  8
GSLAYER
 10
5946.2829575712
 20
4009.4877232295
  0
VERTEX
  8
GSLAYER
 10
5947.1890918036
 20
4008.8904906681
  0
VERTEX
  8
GSLAYER
 10
5947.9853915837
 20
4008.1971517174
  0
VERTEX
  8
GSLAYER
 10
5948.6718569113
 20
4007.4077063775
  0
VERTEX
  8
GSLAYER
 10
5949.2484877865
 20
4006.5221546484
  0
VERTEX
  8
GSLAYER
 10
5949.6620831464
 20
4005.6640618877
  0
VERTEX
  8
GSLAYER
 10
5949.9692763805
 20
4004.7922396428
  0
VERTEX
  8
GSLAYER
 10
5950.1700674888
 20
4003.9066879137
  0
VERTEX
  8
GSLAYER
 10
5950.2644564714
 20
4003.0074067004
  0
VERTEX
  8
GSLAYER
 10
5950.2644564714
 20
4002.9524887637
  0
VERTEX
  8
GSLAYER
 10
5942.7133378675
 20
4002.9524887637
  0
SEQEND
  0
POLYLINE
  8
GSLAYER
 70
128
 66
1
  0
VERTEX
  8
GSLAYER
 10
5941.8895794744
 20
4002.9524887637
  0
VERTEX
  8
GSLAYER
 10
5934.3384608706
 20
4002.9524887637
  0
VERTEX
  8
GSLAYER
 10
5934.3384608706
 20
4003.0074067004
  0
VERTEX
  8
GSLAYER
 10
5934.4328498531
 20
4003.8963908006
  0
VERTEX
  8
GSLAYER
 10
5934.6336409614
 20
4004.7785101586
  0
VERTEX
  8
GSLAYER
 10
5934.9408341955
 20
4005.6537647746
  0
VERTEX
  8
GSLAYER
 10
5935.3544295554
 20
4006.5221546484
  0
VERTEX
  8
GSLAYER
 10
5935.9516543905
 20
4007.4283006038
  0
VERTEX
  8
GSLAYER
 10
5936.6449843714
 20
4008.2246106857
  0
VERTEX
  8
GSLAYER
 10
5937.4344194981
 20
4008.9110848943
  0
VERTEX
  8
GSLAYER
 10
5938.3199597708
 20
4009.4877232295
  0
VERTEX
  8
GSLAYER
 10
5939.1780414303
 20
4009.9013239402
  0
VERTEX
  8
GSLAYER
 10
5940.0498523964
 20
4010.2085211486
  0
VERTEX
  8
GSLAYER
 10
5940.935392669
 20
4010.4093148546
  0
VERTEX
  8
GSLAYER
 10
5941.8346622482
 20
4010.5037050583
  0
VERTEX
  8
GSLAYER
 10
5941.8895794744
 20
4010.5037050583
  0
VERTEX
  8
GSLAYER
 10
5941.8895794744
 20
4002.9524887637
  0
SEQEND
  0
POLYLINE
  8
GSLAYER
 70
128
 66
1
  0
VERTEX
  8
GSLAYER
 10
5590.8312109284
 20
5910.8889787287
  0
VERTEX
  8
GSLAYER
 10
5589.7380148942
 20
5910.8186151223
  0
VERTEX
  8
GSLAYER
 10
5588.6551158399
 20
5910.6075243032
  0
VERTEX
  8
GSLAYER
 10
5587.5825137655
 20
5910.2557062713
  0
VERTEX
  8
GSLAYER
 10
5586.520208671
 20
5909.7631610266
  0
VERTEX
  8
GSLAYER
 10
5585.5231177826
 20
5909.1281723837
  0
VERTEX
  8
GSLAYER
 10
5584.6461583266
 20
5908.3764831253
  0
VERTEX
  8
GSLAYER
 10
5583.8893303029
 20
5907.5080932514
  0
VERTEX
  8
GSLAYER
 10
5583.2526337115
 20
5906.5230027621
  0
VERTEX
  8
GSLAYER
 10
5582.9806218254
 20
5905.9969918997
  0
VERTEX
  8
GSLAYER
 10
5582.7412170424
 20
5905.4624001098
  0
VERTEX
  8
GSLAYER
 10
5582.5344193625
 20
5904.9192273922
  0
VERTEX
  8
GSLAYER
 10
5582.3602287856
 20
5904.3674737471
  0
VERTEX
  8
GSLAYER
 10
5582.2220776384
 20
5903.8088553598
  0
VERTEX
  8
GSLAYER
 10
5582.1233982476
 20
5903.245088416
  0
VERTEX
  8
GSLAYER
 10
5582.064190613
 20
5902.6761729157
  0
VERTEX
  8
GSLAYER
 10
5582.0444547349
 20
5902.1021088587
  0
VERTEX
  8
GSLAYER
 10
5582.1182497576
 20
5901.0088986815
  0
VERTEX
  8
GSLAYER
 10
5582.3396348258
 20
5899.9259856175
  0
VERTEX
  8
GSLAYER
 10
5582.7086099394
 20
5898.8533696666
  0
VERTEX
  8
GSLAYER
 10
5583.2251750984
 20
5897.7910508288
  0
VERTEX
  8
GSLAYER
 10
5583.8824656496
 20
5896.7836499276
  0
VERTEX
  8
GSLAYER
 10
5584.6461583266
 20
5895.9032467551
  0
VERTEX
  8
GSLAYER
 10
5585.5162531293
 20
5895.1498413112
  0
VERTEX
  8
GSLAYER
 10
5586.4927500579
 20
5894.5234335959
  0
VERTEX
  8
GSLAYER
 10
5587.0161798702
 20
5894.2625733966
  0
VERTEX
  8
GSLAYER
 10
5587.5430420091
 20
5894.0291721657
  0
VERTEX
  8
GSLAYER
 10
5588.0733364747
 20
5893.8232299031
  0
VERTEX
  8
GSLAYER
 10
5588.6070632669
 20
5893.6447466089
  0
VERTEX
  8
GSLAYER
 10
5589.1476547124
 20
5893.5005870251
  0
VERTEX
  8
GSLAYER
 10
5589.6985431379
 20
5893.3976158938
  0
VERTEX
  8
GSLAYER
 10
5590.2597285432
 20
5893.335833215
  0
VERTEX
  8
GSLAYER
 10
5590.8312109284
 20
5893.3152389887
  0
VERTEX
  8
GSLAYER
 10
5591.4035513953
 20
5893.335833215
  0
VERTEX
  8
GSLAYER
 10
5591.9673110457
 20
5893.3976158938
  0
VERTEX
  8
GSLAYER
 10
5592.5224898794
 20
5893.5005870251
  0
VERTEX
  8
GSLAYER
 10
5593.0690878965
 20
5893.6447466089
  0
VERTEX
  8
GSLAYER
 10
5593.6088212603
 20
5893.8232299031
  0
VERTEX
  8
GSLAYER
 10
5594.1434061342
 20
5894.0291721657
  0
VERTEX
  8
GSLAYER
 10
5594.6728425181
 20
5894.2625733966
  0
VERTEX
  8
GSLAYER
 10
5595.1971304121
 20
5894.5234335959
  0
VERTEX
  8
GSLAYER
 10
5596.1719111773
 20
5895.1498413112
  0
VERTEX
  8
GSLAYER
 10
5597.0368574901
 20
5895.9032467551
  0
VERTEX
  8
GSLAYER
 10
5597.7919693505
 20
5896.7836499276
  0
VERTEX
  8
GSLAYER
 10
5598.4372467585
 20
5897.7910508288
  0
VERTEX
  8
GSLAYER
 10
5598.9538119175
 20
5898.8533696666
  0
VERTEX
  8
GSLAYER
 10
5599.3227870311
 20
5899.9259856175
  0
VERTEX
  8
GSLAYER
 10
5599.5441720993
 20
5901.0088986815
  0
VERTEX
  8
GSLAYER
 10
5599.617967122
 20
5902.1021088587
  0
VERTEX
  8
GSLAYER
 10
5599.5441720993
 20
5903.2330751174
  0
VERTEX
  8
GSLAYER
 10
5599.3227870311
 20
5904.3468795208
  0
VERTEX
  8
GSLAYER
 10
5598.9538119175
 20
5905.443522069
  0
VERTEX
  8
GSLAYER
 10
5598.4372467585
 20
5906.5230027621
  0
VERTEX
  8
GSLAYER
 10
5598.1223307894
 20
5907.0309936764
  0
VERTEX
  8
GSLAYER
 10
5597.7816723706
 20
5907.5115256224
  0
VERTEX
  8
GSLAYER
 10
5597.415271502
 20
5907.9645986001
  0
VERTEX
  8
GSLAYER
 10
5597.0231281836
 20
5908.3902126094
  0
VERTEX
  8
GSLAYER
 10
5596.6035262521
 20
5908.7849352794
  0
VERTEX
  8
GSLAYER
 10
5596.1547495442
 20
5909.1453342389
  0
VERTEX
  8
GSLAYER
 10
5595.6767980598
 20
5909.471409488
  0
VERTEX
  8
GSLAYER
 10
5595.169671799
 20
5909.7631610266
  0
VERTEX
  8
GSLAYER
 10
5594.0850565814
 20
5910.2557062713
  0
VERTEX
  8
GSLAYER
 10
5593.0004413637
 20
5910.6075243032
  0
VERTEX
  8
GSLAYER
 10
5591.9158261461
 20
5910.8186151223
  0
VERTEX
  8
GSLAYER
 10
5590.8312109284
 20
5910.8889787287
  0
SEQEND
  0
POLYLINE
  8
GSLAYER
 70
128
 66
1
  0
VERTEX
  8
GSLAYER
 10
5591.243090125
 20
5901.6902243336
  0
VERTEX
  8
GSLAYER
 10
5598.7942087289
 20
5901.6902243336
  0
VERTEX
  8
GSLAYER
 10
5598.7942087289
 20
5901.6353063969
  0
VERTEX
  8
GSLAYER
 10
5598.6998197463
 20
5900.7463222967
  0
VERTEX
  8
GSLAYER
 10
5598.499028638
 20
5899.8642029387
  0
VERTEX
  8
GSLAYER
 10
5598.1918354039
 20
5898.9889483228
  0
VERTEX
  8
GSLAYER
 10
5597.778240044
 20
5898.1205584489
  0
VERTEX
  8
GSLAYER
 10
5597.1810152089
 20
5897.2144124935
  0
VERTEX
  8
GSLAYER
 10
5596.487685228
 20
5896.4181024116
  0
VERTEX
  8
GSLAYER
 10
5595.6982501013
 20
5895.731628203
  0
VERTEX
  8
GSLAYER
 10
5594.8127098286
 20
5895.1549898678
  0
VERTEX
  8
GSLAYER
 10
5593.9546281691
 20
5894.7413891571
  0
VERTEX
  8
GSLAYER
 10
5593.082817203
 20
5894.4341919487
  0
VERTEX
  8
GSLAYER
 10
5592.1972769304
 20
5894.2333982427
  0
VERTEX
  8
GSLAYER
 10
5591.2980073512
 20
5894.139008039
  0
VERTEX
  8
GSLAYER
 10
5591.243090125
 20
5894.139008039
  0
VERTEX
  8
GSLAYER
 10
5591.243090125
 20
5901.6902243336
  0
SEQEND
  0
POLYLINE
  8
GSLAYER
 70
128
 66
1
  0
VERTEX
  8
GSLAYER
 10
5590.4193317319
 20
5901.6902243336
  0
VERTEX
  8
GSLAYER
 10
5590.4193317319
 20
5894.139008039
  0
VERTEX
  8
GSLAYER
 10
5590.3644145057
 20
5894.139008039
  0
VERTEX
  8
GSLAYER
 10
5589.4754419064
 20
5894.2333982427
  0
VERTEX
  8
GSLAYER
 10
5588.5933339604
 20
5894.4341919487
  0
VERTEX
  8
GSLAYER
 10
5587.7180906677
 20
5894.7413891571
  0
VERTEX
  8
GSLAYER
 10
5586.8497120282
 20
5895.1549898678
  0
VERTEX
  8
GSLAYER
 10
5585.9435777958
 20
5895.7522224292
  0
VERTEX
  8
GSLAYER
 10
5585.1472780157
 20
5896.4455613799
  0
VERTEX
  8
GSLAYER
 10
5584.4608126881
 20
5897.2350067198
  0
VERTEX
  8
GSLAYER
 10
5583.8841818129
 20
5898.1205584489
  0
VERTEX
  8
GSLAYER
 10
5583.470586453
 20
5898.9786512096
  0
VERTEX
  8
GSLAYER
 10
5583.1633932189
 20
5899.8504734545
  0
VERTEX
  8
GSLAYER
 10
5582.9626021106
 20
5900.7360251836
  0
VERTEX
  8
GSLAYER
 10
5582.868213128
 20
5901.6353063969
  0
VERTEX
  8
GSLAYER
 10
5582.868213128
 20
5901.6902243336
  0
VERTEX
  8
GSLAYER
 10
5590.4193317319
 20
5901.6902243336
  0
SEQEND
  0
POLYLINE
  8
GSLAYER
 70
128
 66
1
  0
VERTEX
  8
GSLAYER
 10
5591.243090125
 20
5902.5139933839
  0
VERTEX
  8
GSLAYER
 10
5591.243090125
 20
5910.0652096784
  0
VERTEX
  8
GSLAYER
 10
5591.2980073512
 20
5910.0652096784
  0
VERTEX
  8
GSLAYER
 10
5592.1869799505
 20
5909.9708194747
  0
VERTEX
  8
GSLAYER
 10
5593.0690878965
 20
5909.7700257687
  0
VERTEX
  8
GSLAYER
 10
5593.9443311892
 20
5909.4628285604
  0
VERTEX
  8
GSLAYER
 10
5594.8127098286
 20
5909.0492278497
  0
VERTEX
  8
GSLAYER
 10
5595.7188440611
 20
5908.4519952882
  0
VERTEX
  8
GSLAYER
 10
5596.5151438412
 20
5907.7586563375
  0
VERTEX
  8
GSLAYER
 10
5597.2016091688
 20
5906.9692109976
  0
VERTEX
  8
GSLAYER
 10
5597.778240044
 20
5906.0836592686
  0
VERTEX
  8
GSLAYER
 10
5598.1918354039
 20
5905.2255665078
  0
VERTEX
  8
GSLAYER
 10
5598.499028638
 20
5904.3537442629
  0
VERTEX
  8
GSLAYER
 10
5598.6998197463
 20
5903.4681925338
  0
VERTEX
  8
GSLAYER
 10
5598.7942087289
 20
5902.5689113206
  0
VERTEX
  8
GSLAYER
 10
5598.7942087289
 20
5902.5139933839
  0
VERTEX
  8
GSLAYER
 10
5591.243090125
 20
5902.5139933839
  0
SEQEND
  0
POLYLINE
  8
GSLAYER
 70
128
 66
1
  0
VERTEX
  8
GSLAYER
 10
5590.4193317319
 20
5902.5139933839
  0
VERTEX
  8
GSLAYER
 10
5582.868213128
 20
5902.5139933839
  0
VERTEX
  8
GSLAYER
 10
5582.868213128
 20
5902.5689113206
  0
VERTEX
  8
GSLAYER
 10
5582.9626021106
 20
5903.4578954207
  0
VERTEX
  8
GSLAYER
 10
5583.1633932189
 20
5904.3400147787
  0
VERTEX
  8
GSLAYER
 10
5583.470586453
 20
5905.2152693947
  0
VERTEX
  8
GSLAYER
 10
5583.8841818129
 20
5906.0836592686
  0
VERTEX
  8
GSLAYER
 10
5584.4814066479
 20
5906.9898052239
  0
VERTEX
  8
GSLAYER
 10
5585.1747366288
 20
5907.7861153059
  0
VERTEX
  8
GSLAYER
 10
5585.9641717556
 20
5908.4725895145
  0
VERTEX
  8
GSLAYER
 10
5586.8497120282
 20
5909.0492278497
  0
VERTEX
  8
GSLAYER
 10
5587.7077936878
 20
5909.4628285604
  0
VERTEX
  8
GSLAYER
 10
5588.5796046538
 20
5909.7700257687
  0
VERTEX
  8
GSLAYER
 10
5589.4651449265
 20
5909.9708194747
  0
VERTEX
  8
GSLAYER
 10
5590.3644145057
 20
5910.0652096784
  0
VERTEX
  8
GSLAYER
 10
5590.4193317319
 20
5910.0652096784
  0
VERTEX
  8
GSLAYER
 10
5590.4193317319
 20
5902.5139933839
  0
SEQEND
  0
POLYLINE
  8
GSLAYER
 70
128
 66
1
  0
VERTEX
  8
GSLAYER
 10
6325.7235471174
 20
2487.2049548423
  0
VERTEX
  8
GSLAYER
 10
6324.6303510831
 20
2487.1345912359
  0
VERTEX
  8
GSLAYER
 10
6323.5474520288
 20
2486.9235004168
  0
VERTEX
  8
GSLAYER
 10
6322.4748499544
 20
2486.5716823849
  0
VERTEX
  8
GSLAYER
 10
6321.4125448599
 20
2486.0791371402
  0
VERTEX
  8
GSLAYER
 10
6320.4154539715
 20
2485.4441484973
  0
VERTEX
  8
GSLAYER
 10
6319.5384945155
 20
2484.6924592388
  0
VERTEX
  8
GSLAYER
 10
6318.7816664918
 20
2483.824069365
  0
VERTEX
  8
GSLAYER
 10
6318.1449699004
 20
2482.8389788756
  0
VERTEX
  8
GSLAYER
 10
6317.8729580143
 20
2482.3129680133
  0
VERTEX
  8
GSLAYER
 10
6317.6335532313
 20
2481.7783762234
  0
VERTEX
  8
GSLAYER
 10
6317.4267555514
 20
2481.2352035058
  0
VERTEX
  8
GSLAYER
 10
6317.2525649745
 20
2480.6834498607
  0
VERTEX
  8
GSLAYER
 10
6317.1144138273
 20
2480.1248314734
  0
VERTEX
  8
GSLAYER
 10
6317.0157344365
 20
2479.5610645296
  0
VERTEX
  8
GSLAYER
 10
6316.956526802
 20
2478.9921490292
  0
VERTEX
  8
GSLAYER
 10
6316.9367909238
 20
2478.4180849723
  0
VERTEX
  8
GSLAYER
 10
6317.0105859465
 20
2477.3248747951
  0
VERTEX
  8
GSLAYER
 10
6317.2319710147
 20
2476.2419617311
  0
VERTEX
  8
GSLAYER
 10
6317.6009461283
 20
2475.1693457801
  0
VERTEX
  8
GSLAYER
 10
6318.1175112873
 20
2474.1070269423
  0
VERTEX
  8
GSLAYER
 10
6318.7748018385
 20
2473.0996260412
  0
VERTEX
  8
GSLAYER
 10
6319.5384945155
 20
2472.2192228687
  0
VERTEX
  8
GSLAYER
 10
6320.4085893183
 20
2471.4658174248
  0
VERTEX
  8
GSLAYER
 10
6321.3850862468
 20
2470.8394097095
  0
VERTEX
  8
GSLAYER
 10
6321.9085160591
 20
2470.5785495102
  0
VERTEX
  8
GSLAYER
 10
6322.4353781981
 20
2470.3451482793
  0
VERTEX
  8
GSLAYER
 10
6322.9656726636
 20
2470.1392060167
  0
VERTEX
  8
GSLAYER
 10
6323.4993994559
 20
2469.9607227225
  0
VERTEX
  8
GSLAYER
 10
6324.0399909014
 20
2469.8165631386
  0
VERTEX
  8
GSLAYER
 10
6324.5908793268
 20
2469.7135920074
  0
VERTEX
  8
GSLAYER
 10
6325.1520647321
 20
2469.6518093286
  0
VERTEX
  8
GSLAYER
 10
6325.7235471174
 20
2469.6312151023
  0
VERTEX
  8
GSLAYER
 10
6326.2958875843
 20
2469.6518093286
  0
VERTEX
  8
GSLAYER
 10
6326.8596472346
 20
2469.7135920074
  0
VERTEX
  8
GSLAYER
 10
6327.4148260683
 20
2469.8165631386
  0
VERTEX
  8
GSLAYER
 10
6327.9614240854
 20
2469.9607227225
  0
VERTEX
  8
GSLAYER
 10
6328.5011574493
 20
2470.1392060167
  0
VERTEX
  8
GSLAYER
 10
6329.0357423231
 20
2470.3451482793
  0
VERTEX
  8
GSLAYER
 10
6329.5651787071
 20
2470.5785495102
  0
VERTEX
  8
GSLAYER
 10
6330.089466601
 20
2470.8394097095
  0
VERTEX
  8
GSLAYER
 10
6331.0642473663
 20
2471.4658174248
  0
VERTEX
  8
GSLAYER
 10
6331.9291936791
 20
2472.2192228687
  0
VERTEX
  8
GSLAYER
 10
6332.6843055395
 20
2473.0996260412
  0
VERTEX
  8
GSLAYER
 10
6333.3295829474
 20
2474.1070269423
  0
VERTEX
  8
GSLAYER
 10
6333.8461481065
 20
2475.1693457801
  0
VERTEX
  8
GSLAYER
 10
6334.2151232201
 20
2476.2419617311
  0
VERTEX
  8
GSLAYER
 10
6334.4365082882
 20
2477.3248747951
  0
VERTEX
  8
GSLAYER
 10
6334.5103033109
 20
2478.4180849723
  0
VERTEX
  8
GSLAYER
 10
6334.4365082882
 20
2479.549051231
  0
VERTEX
  8
GSLAYER
 10
6334.2151232201
 20
2480.6628556344
  0
VERTEX
  8
GSLAYER
 10
6333.8461481065
 20
2481.7594981826
  0
VERTEX
  8
GSLAYER
 10
6333.3295829474
 20
2482.8389788756
  0
VERTEX
  8
GSLAYER
 10
6333.0146669784
 20
2483.34696979
  0
VERTEX
  8
GSLAYER
 10
6332.6740085595
 20
2483.827501736
  0
VERTEX
  8
GSLAYER
 10
6332.3076076909
 20
2484.2805747137
  0
VERTEX
  8
GSLAYER
 10
6331.9154643725
 20
2484.706188723
  0
VERTEX
  8
GSLAYER
 10
6331.495862441
 20
2485.100911393
  0
VERTEX
  8
GSLAYER
 10
6331.0470857331
 20
2485.4613103525
  0
VERTEX
  8
GSLAYER
 10
6330.5691342487
 20
2485.7873856016
  0
VERTEX
  8
GSLAYER
 10
6330.0620079879
 20
2486.0791371402
  0
VERTEX
  8
GSLAYER
 10
6328.9773927703
 20
2486.5716823849
  0
VERTEX
  8
GSLAYER
 10
6327.8927775527
 20
2486.9235004168
  0
VERTEX
  8
GSLAYER
 10
6326.808162335
 20
2487.1345912359
  0
VERTEX
  8
GSLAYER
 10
6325.7235471174
 20
2487.2049548423
  0
SEQEND
  0
POLYLINE
  8
GSLAYER
 70
128
 66
1
  0
VERTEX
  8
GSLAYER
 10
6326.1354263139
 20
2478.0062004472
  0
VERTEX
  8
GSLAYER
 10
6333.6865449178
 20
2478.0062004472
  0
VERTEX
  8
GSLAYER
 10
6333.6865449178
 20
2477.9512825105
  0
VERTEX
  8
GSLAYER
 10
6333.5921559352
 20
2477.0622984103
  0
VERTEX
  8
GSLAYER
 10
6333.3913648269
 20
2476.1801790523
  0
VERTEX
  8
GSLAYER
 10
6333.0841715928
 20
2475.3049244363
  0
VERTEX
  8
GSLAYER
 10
6332.6705762329
 20
2474.4365345625
  0
VERTEX
  8
GSLAYER
 10
6332.0733513979
 20
2473.5303886071
  0
VERTEX
  8
GSLAYER
 10
6331.380021417
 20
2472.7340785252
  0
VERTEX
  8
GSLAYER
 10
6330.5905862902
 20
2472.0476043166
  0
VERTEX
  8
GSLAYER
 10
6329.7050460176
 20
2471.4709659814
  0
VERTEX
  8
GSLAYER
 10
6328.846964358
 20
2471.0573652707
  0
VERTEX
  8
GSLAYER
 10
6327.975153392
 20
2470.7501680623
  0
VERTEX
  8
GSLAYER
 10
6327.0896131193
 20
2470.5493743563
  0
VERTEX
  8
GSLAYER
 10
6326.1903435401
 20
2470.4549841526
  0
VERTEX
  8
GSLAYER
 10
6326.1354263139
 20
2470.4549841526
  0
VERTEX
  8
GSLAYER
 10
6326.1354263139
 20
2478.0062004472
  0
SEQEND
  0
POLYLINE
  8
GSLAYER
 70
128
 66
1
  0
VERTEX
  8
GSLAYER
 10
6325.3116679208
 20
2478.0062004472
  0
VERTEX
  8
GSLAYER
 10
6325.3116679208
 20
2470.4549841526
  0
VERTEX
  8
GSLAYER
 10
6325.2567506946
 20
2470.4549841526
  0
VERTEX
  8
GSLAYER
 10
6324.3677780953
 20
2470.5493743563
  0
VERTEX
  8
GSLAYER
 10
6323.4856701493
 20
2470.7501680623
  0
VERTEX
  8
GSLAYER
 10
6322.6104268566
 20
2471.0573652707
  0
VERTEX
  8
GSLAYER
 10
6321.7420482172
 20
2471.4709659814
  0
VERTEX
  8
GSLAYER
 10
6320.8359139847
 20
2472.0681985428
  0
VERTEX
  8
GSLAYER
 10
6320.0396142047
 20
2472.7615374935
  0
VERTEX
  8
GSLAYER
 10
6319.353148877
 20
2473.5509828334
  0
VERTEX
  8
GSLAYER
 10
6318.7765180018
 20
2474.4365345625
  0
VERTEX
  8
GSLAYER
 10
6318.3629226419
 20
2475.2946273232
  0
VERTEX
  8
GSLAYER
 10
6318.0557294078
 20
2476.1664495681
  0
VERTEX
  8
GSLAYER
 10
6317.8549382995
 20
2477.0520012972
  0
VERTEX
  8
GSLAYER
 10
6317.7605493169
 20
2477.9512825105
  0
VERTEX
  8
GSLAYER
 10
6317.7605493169
 20
2478.0062004472
  0
VERTEX
  8
GSLAYER
 10
6325.3116679208
 20
2478.0062004472
  0
SEQEND
  0
POLYLINE
  8
GSLAYER
 70
128
 66
1
  0
VERTEX
  8
GSLAYER
 10
6326.1354263139
 20
2478.8299694975
  0
VERTEX
  8
GSLAYER
 10
6326.1354263139
 20
2486.381185792
  0
VERTEX
  8
GSLAYER
 10
6326.1903435401
 20
2486.381185792
  0
VERTEX
  8
GSLAYER
 10
6327.0793161394
 20
2486.2867955883
  0
VERTEX
  8
GSLAYER
 10
6327.9614240854
 20
2486.0860018823
  0
VERTEX
  8
GSLAYER
 10
6328.8366673781
 20
2485.7788046739
  0
VERTEX
  8
GSLAYER
 10
6329.7050460176
 20
2485.3652039633
  0
VERTEX
  8
GSLAYER
 10
6330.61118025
 20
2484.7679714018
  0
VERTEX
  8
GSLAYER
 10
6331.4074800301
 20
2484.0746324511
  0
VERTEX
  8
GSLAYER
 10
6332.0939453577
 20
2483.2851871112
  0
VERTEX
  8
GSLAYER
 10
6332.6705762329
 20
2482.3996353821
  0
VERTEX
  8
GSLAYER
 10
6333.0841715928
 20
2481.5415426214
  0
VERTEX
  8
GSLAYER
 10
6333.3913648269
 20
2480.6697203765
  0
VERTEX
  8
GSLAYER
 10
6333.5921559352
 20
2479.7841686474
  0
VERTEX
  8
GSLAYER
 10
6333.6865449178
 20
2478.8848874342
  0
VERTEX
  8
GSLAYER
 10
6333.6865449178
 20
2478.8299694975
  0
VERTEX
  8
GSLAYER
 10
6326.1354263139
 20
2478.8299694975
  0
SEQEND
  0
POLYLINE
  8
GSLAYER
 70
128
 66
1
  0
VERTEX
  8
GSLAYER
 10
6325.3116679208
 20
2478.8299694975
  0
VERTEX
  8
GSLAYER
 10
6317.7605493169
 20
2478.8299694975
  0
VERTEX
  8
GSLAYER
 10
6317.7605493169
 20
2478.8848874342
  0
VERTEX
  8
GSLAYER
 10
6317.8549382995
 20
2479.7738715343
  0
VERTEX
  8
GSLAYER
 10
6318.0557294078
 20
2480.6559908923
  0
VERTEX
  8
GSLAYER
 10
6318.3629226419
 20
2481.5312455083
  0
VERTEX
  8
GSLAYER
 10
6318.7765180018
 20
2482.3996353821
  0
VERTEX
  8
GSLAYER
 10
6319.3737428369
 20
2483.3057813375
  0
VERTEX
  8
GSLAYER
 10
6320.0670728178
 20
2484.1020914195
  0
VERTEX
  8
GSLAYER
 10
6320.8565079445
 20
2484.7885656281
  0
VERTEX
  8
GSLAYER
 10
6321.7420482172
 20
2485.3652039633
  0
VERTEX
  8
GSLAYER
 10
6322.6001298767
 20
2485.7788046739
  0
VERTEX
  8
GSLAYER
 10
6323.4719408428
 20
2486.0860018823
  0
VERTEX
  8
GSLAYER
 10
6324.3574811154
 20
2486.2867955883
  0
VERTEX
  8
GSLAYER
 10
6325.2567506946
 20
2486.381185792
  0
VERTEX
  8
GSLAYER
 10
6325.3116679208
 20
2486.381185792
  0
VERTEX
  8
GSLAYER
 10
6325.3116679208
 20
2478.8299694975
  0
SEQEND
  0
POLYLINE
  8
GSLAYER
 70
128
 66
1
  0
VERTEX
  8
GSLAYER
 10
6477.4947904607
 20
2464.8383769914
  0
VERTEX
  8
GSLAYER
 10
6476.4015944265
 20
2464.768013385
  0
VERTEX
  8
GSLAYER
 10
6475.3186953722
 20
2464.5569225659
  0
VERTEX
  8
GSLAYER
 10
6474.2460932978
 20
2464.205104534
  0
VERTEX
  8
GSLAYER
 10
6473.1837882033
 20
2463.7125592893
  0
VERTEX
  8
GSLAYER
 10
6472.1866973149
 20
2463.0775706464
  0
VERTEX
  8
GSLAYER
 10
6471.3097378589
 20
2462.325881388
  0
VERTEX
  8
GSLAYER
 10
6470.5529098352
 20
2461.4574915141
  0
VERTEX
  8
GSLAYER
 10
6469.9162132438
 20
2460.4724010248
  0
VERTEX
  8
GSLAYER
 10
6469.6442013577
 20
2459.9463901624
  0
VERTEX
  8
GSLAYER
 10
6469.4047965747
 20
2459.4117983725
  0
VERTEX
  8
GSLAYER
 10
6469.1979988948
 20
2458.868625655
  0
VERTEX
  8
GSLAYER
 10
6469.0238083179
 20
2458.3168720098
  0
VERTEX
  8
GSLAYER
 10
6468.8856571707
 20
2457.7582536226
  0
VERTEX
  8
GSLAYER
 10
6468.7869777798
 20
2457.1944866788
  0
VERTEX
  8
GSLAYER
 10
6468.7277701453
 20
2456.6255711784
  0
VERTEX
  8
GSLAYER
 10
6468.7080342672
 20
2456.0515071214
  0
VERTEX
  8
GSLAYER
 10
6468.7818292899
 20
2454.9582969443
  0
VERTEX
  8
GSLAYER
 10
6469.003214358
 20
2453.8753838802
  0
VERTEX
  8
GSLAYER
 10
6469.3721894716
 20
2452.8027679293
  0
VERTEX
  8
GSLAYER
 10
6469.8887546307
 20
2451.7404490915
  0
VERTEX
  8
GSLAYER
 10
6470.5460451819
 20
2450.7330481904
  0
VERTEX
  8
GSLAYER
 10
6471.3097378589
 20
2449.8526450179
  0
VERTEX
  8
GSLAYER
 10
6472.1798326616
 20
2449.0992395739
  0
VERTEX
  8
GSLAYER
 10
6473.1563295902
 20
2448.4728318586
  0
VERTEX
  8
GSLAYER
 10
6473.6797594025
 20
2448.2119716593
  0
VERTEX
  8
GSLAYER
 10
6474.2066215414
 20
2447.9785704284
  0
VERTEX
  8
GSLAYER
 10
6474.736916007
 20
2447.7726281658
  0
VERTEX
  8
GSLAYER
 10
6475.2706427992
 20
2447.5941448716
  0
VERTEX
  8
GSLAYER
 10
6475.8112342447
 20
2447.4499852878
  0
VERTEX
  8
GSLAYER
 10
6476.3621226702
 20
2447.3470141565
  0
VERTEX
  8
GSLAYER
 10
6476.9233080755
 20
2447.2852314777
  0
VERTEX
  8
GSLAYER
 10
6477.4947904607
 20
2447.2646372515
  0
VERTEX
  8
GSLAYER
 10
6478.0671309276
 20
2447.2852314777
  0
VERTEX
  8
GSLAYER
 10
6478.6308905779
 20
2447.3470141565
  0
VERTEX
  8
GSLAYER
 10
6479.1860694117
 20
2447.4499852878
  0
VERTEX
  8
GSLAYER
 10
6479.7326674288
 20
2447.5941448716
  0
VERTEX
  8
GSLAYER
 10
6480.2724007926
 20
2447.7726281658
  0
VERTEX
  8
GSLAYER
 10
6480.8069856665
 20
2447.9785704284
  0
VERTEX
  8
GSLAYER
 10
6481.3364220504
 20
2448.2119716593
  0
VERTEX
  8
GSLAYER
 10
6481.8607099444
 20
2448.4728318586
  0
VERTEX
  8
GSLAYER
 10
6482.8354907096
 20
2449.0992395739
  0
VERTEX
  8
GSLAYER
 10
6483.7004370224
 20
2449.8526450179
  0
VERTEX
  8
GSLAYER
 10
6484.4555488828
 20
2450.7330481904
  0
VERTEX
  8
GSLAYER
 10
6485.1008262908
 20
2451.7404490915
  0
VERTEX
  8
GSLAYER
 10
6485.6173914498
 20
2452.8027679293
  0
VERTEX
  8
GSLAYER
 10
6485.9863665634
 20
2453.8753838802
  0
VERTEX
  8
GSLAYER
 10
6486.2077516316
 20
2454.9582969443
  0
VERTEX
  8
GSLAYER
 10
6486.2815466543
 20
2456.0515071214
  0
VERTEX
  8
GSLAYER
 10
6486.2077516316
 20
2457.1824733801
  0
VERTEX
  8
GSLAYER
 10
6485.9863665634
 20
2458.2962777835
  0
VERTEX
  8
GSLAYER
 10
6485.6173914498
 20
2459.3929203318
  0
VERTEX
  8
GSLAYER
 10
6485.1008262908
 20
2460.4724010248
  0
VERTEX
  8
GSLAYER
 10
6484.7859103217
 20
2460.9803919391
  0
VERTEX
  8
GSLAYER
 10
6484.4452519029
 20
2461.4609238852
  0
VERTEX
  8
GSLAYER
 10
6484.0788510343
 20
2461.9139968628
  0
VERTEX
  8
GSLAYER
 10
6483.6867077159
 20
2462.3396108722
  0
VERTEX
  8
GSLAYER
 10
6483.2671057844
 20
2462.7343335421
  0
VERTEX
  8
GSLAYER
 10
6482.8183290764
 20
2463.0947325016
  0
VERTEX
  8
GSLAYER
 10
6482.3403775921
 20
2463.4208077507
  0
VERTEX
  8
GSLAYER
 10
6481.8332513313
 20
2463.7125592893
  0
VERTEX
  8
GSLAYER
 10
6480.7486361137
 20
2464.205104534
  0
VERTEX
  8
GSLAYER
 10
6479.664020896
 20
2464.5569225659
  0
VERTEX
  8
GSLAYER
 10
6478.5794056784
 20
2464.768013385
  0
VERTEX
  8
GSLAYER
 10
6477.4947904607
 20
2464.8383769914
  0
SEQEND
  0
POLYLINE
  8
GSLAYER
 70
128
 66
1
  0
VERTEX
  8
GSLAYER
 10
6477.9066696573
 20
2455.6396225963
  0
VERTEX
  8
GSLAYER
 10
6485.4577882611
 20
2455.6396225963
  0
VERTEX
  8
GSLAYER
 10
6485.4577882611
 20
2455.5847046596
  0
VERTEX
  8
GSLAYER
 10
6485.3633992786
 20
2454.6957205595
  0
VERTEX
  8
GSLAYER
 10
6485.1626081703
 20
2453.8136012014
  0
VERTEX
  8
GSLAYER
 10
6484.8554149362
 20
2452.9383465855
  0
VERTEX
  8
GSLAYER
 10
6484.4418195763
 20
2452.0699567116
  0
VERTEX
  8
GSLAYER
 10
6483.8445947412
 20
2451.1638107563
  0
VERTEX
  8
GSLAYER
 10
6483.1512647603
 20
2450.3675006743
  0
VERTEX
  8
GSLAYER
 10
6482.3618296336
 20
2449.6810264657
  0
VERTEX
  8
GSLAYER
 10
6481.4762893609
 20
2449.1043881305
  0
VERTEX
  8
GSLAYER
 10
6480.6182077014
 20
2448.6907874198
  0
VERTEX
  8
GSLAYER
 10
6479.7463967353
 20
2448.3835902115
  0
VERTEX
  8
GSLAYER
 10
6478.8608564627
 20
2448.1827965055
  0
VERTEX
  8
GSLAYER
 10
6477.9615868835
 20
2448.0884063018
  0
VERTEX
  8
GSLAYER
 10
6477.9066696573
 20
2448.0884063018
  0
VERTEX
  8
GSLAYER
 10
6477.9066696573
 20
2455.6396225963
  0
SEQEND
  0
POLYLINE
  8
GSLAYER
 70
128
 66
1
  0
VERTEX
  8
GSLAYER
 10
6477.0829112642
 20
2455.6396225963
  0
VERTEX
  8
GSLAYER
 10
6477.0829112642
 20
2448.0884063018
  0
VERTEX
  8
GSLAYER
 10
6477.0279940379
 20
2448.0884063018
  0
VERTEX
  8
GSLAYER
 10
6476.1390214387
 20
2448.1827965055
  0
VERTEX
  8
GSLAYER
 10
6475.2569134927
 20
2448.3835902115
  0
VERTEX
  8
GSLAYER
 10
6474.3816702
 20
2448.6907874198
  0
VERTEX
  8
GSLAYER
 10
6473.5132915605
 20
2449.1043881305
  0
VERTEX
  8
GSLAYER
 10
6472.6071573281
 20
2449.701620692
  0
VERTEX
  8
GSLAYER
 10
6471.810857548
 20
2450.3949596426
  0
VERTEX
  8
GSLAYER
 10
6471.1243922204
 20
2451.1844049825
  0
VERTEX
  8
GSLAYER
 10
6470.5477613452
 20
2452.0699567116
  0
VERTEX
  8
GSLAYER
 10
6470.1341659853
 20
2452.9280494723
  0
VERTEX
  8
GSLAYER
 10
6469.8269727512
 20
2453.7998717173
  0
VERTEX
  8
GSLAYER
 10
6469.6261816429
 20
2454.6854234463
  0
VERTEX
  8
GSLAYER
 10
6469.5317926603
 20
2455.5847046596
  0
VERTEX
  8
GSLAYER
 10
6469.5317926603
 20
2455.6396225963
  0
VERTEX
  8
GSLAYER
 10
6477.0829112642
 20
2455.6396225963
  0
SEQEND
  0
POLYLINE
  8
GSLAYER
 70
128
 66
1
  0
VERTEX
  8
GSLAYER
 10
6477.9066696573
 20
2456.4633916466
  0
VERTEX
  8
GSLAYER
 10
6477.9066696573
 20
2464.0146079411
  0
VERTEX
  8
GSLAYER
 10
6477.9615868835
 20
2464.0146079411
  0
VERTEX
  8
GSLAYER
 10
6478.8505594828
 20
2463.9202177374
  0
VERTEX
  8
GSLAYER
 10
6479.7326674288
 20
2463.7194240314
  0
VERTEX
  8
GSLAYER
 10
6480.6079107215
 20
2463.4122268231
  0
VERTEX
  8
GSLAYER
 10
6481.4762893609
 20
2462.9986261124
  0
VERTEX
  8
GSLAYER
 10
6482.3824235934
 20
2462.4013935509
  0
VERTEX
  8
GSLAYER
 10
6483.1787233734
 20
2461.7080546002
  0
VERTEX
  8
GSLAYER
 10
6483.8651887011
 20
2460.9186092604
  0
VERTEX
  8
GSLAYER
 10
6484.4418195763
 20
2460.0330575313
  0
VERTEX
  8
GSLAYER
 10
6484.8554149362
 20
2459.1749647705
  0
VERTEX
  8
GSLAYER
 10
6485.1626081703
 20
2458.3031425256
  0
VERTEX
  8
GSLAYER
 10
6485.3633992786
 20
2457.4175907965
  0
VERTEX
  8
GSLAYER
 10
6485.4577882611
 20
2456.5183095833
  0
VERTEX
  8
GSLAYER
 10
6485.4577882611
 20
2456.4633916466
  0
VERTEX
  8
GSLAYER
 10
6477.9066696573
 20
2456.4633916466
  0
SEQEND
  0
POLYLINE
  8
GSLAYER
 70
128
 66
1
  0
VERTEX
  8
GSLAYER
 10
6477.0829112642
 20
2456.4633916466
  0
VERTEX
  8
GSLAYER
 10
6469.5317926603
 20
2456.4633916466
  0
VERTEX
  8
GSLAYER
 10
6469.5317926603
 20
2456.5183095833
  0
VERTEX
  8
GSLAYER
 10
6469.6261816429
 20
2457.4072936834
  0
VERTEX
  8
GSLAYER
 10
6469.8269727512
 20
2458.2894130415
  0
VERTEX
  8
GSLAYER
 10
6470.1341659853
 20
2459.1646676574
  0
VERTEX
  8
GSLAYER
 10
6470.5477613452
 20
2460.0330575313
  0
VERTEX
  8
GSLAYER
 10
6471.1449861802
 20
2460.9392034866
  0
VERTEX
  8
GSLAYER
 10
6471.8383161611
 20
2461.7355135686
  0
VERTEX
  8
GSLAYER
 10
6472.6277512879
 20
2462.4219877772
  0
VERTEX
  8
GSLAYER
 10
6473.5132915605
 20
2462.9986261124
  0
VERTEX
  8
GSLAYER
 10
6474.37137322
 20
2463.4122268231
  0
VERTEX
  8
GSLAYER
 10
6475.2431841861
 20
2463.7194240314
  0
VERTEX
  8
GSLAYER
 10
6476.1287244588
 20
2463.9202177374
  0
VERTEX
  8
GSLAYER
 10
6477.0279940379
 20
2464.0146079411
  0
VERTEX
  8
GSLAYER
 10
6477.0829112642
 20
2464.0146079411
  0
VERTEX
  8
GSLAYER
 10
6477.0829112642
 20
2456.4633916466
  0
SEQEND
  0
POLYLINE
  8
GSLAYER
 70
128
 66
1
  0
VERTEX
  8
GSLAYER
 10
6525.4225515165
 20
2381.7625164025
  0
VERTEX
  8
GSLAYER
 10
6524.3293554823
 20
2381.6921527961
  0
VERTEX
  8
GSLAYER
 10
6523.246456428
 20
2381.481061977
  0
VERTEX
  8
GSLAYER
 10
6522.1738543536
 20
2381.1292439451
  0
VERTEX
  8
GSLAYER
 10
6521.1115492591
 20
2380.6366987004
  0
VERTEX
  8
GSLAYER
 10
6520.1144583707
 20
2380.0017100575
  0
VERTEX
  8
GSLAYER
 10
6519.2374989147
 20
2379.250020799
  0
VERTEX
  8
GSLAYER
 10
6518.480670891
 20
2378.3816309252
  0
VERTEX
  8
GSLAYER
 10
6517.8439742996
 20
2377.3965404358
  0
VERTEX
  8
GSLAYER
 10
6517.5719624135
 20
2376.8705295735
  0
VERTEX
  8
GSLAYER
 10
6517.3325576305
 20
2376.3359377836
  0
VERTEX
  8
GSLAYER
 10
6517.1257599506
 20
2375.792765066
  0
VERTEX
  8
GSLAYER
 10
6516.9515693737
 20
2375.2410114209
  0
VERTEX
  8
GSLAYER
 10
6516.8134182265
 20
2374.6823930336
  0
VERTEX
  8
GSLAYER
 10
6516.7147388356
 20
2374.1186260898
  0
VERTEX
  8
GSLAYER
 10
6516.6555312011
 20
2373.5497105894
  0
VERTEX
  8
GSLAYER
 10
6516.635795323
 20
2372.9756465325
  0
VERTEX
  8
GSLAYER
 10
6516.7095903457
 20
2371.8824363553
  0
VERTEX
  8
GSLAYER
 10
6516.9309754138
 20
2370.7995232913
  0
VERTEX
  8
GSLAYER
 10
6517.2999505274
 20
2369.7269073403
  0
VERTEX
  8
GSLAYER
 10
6517.8165156865
 20
2368.6645885025
  0
VERTEX
  8
GSLAYER
 10
6518.4738062377
 20
2367.6571876014
  0
VERTEX
  8
GSLAYER
 10
6519.2374989147
 20
2366.7767844289
  0
VERTEX
  8
GSLAYER
 10
6520.1075937174
 20
2366.023378985
  0
VERTEX
  8
GSLAYER
 10
6521.084090646
 20
2365.3969712696
  0
VERTEX
  8
GSLAYER
 10
6521.6075204583
 20
2365.1361110704
  0
VERTEX
  8
GSLAYER
 10
6522.1343825972
 20
2364.9027098395
  0
VERTEX
  8
GSLAYER
 10
6522.6646770628
 20
2364.6967675769
  0
VERTEX
  8
GSLAYER
 10
6523.198403855
 20
2364.5182842826
  0
VERTEX
  8
GSLAYER
 10
6523.7389953005
 20
2364.3741246988
  0
VERTEX
  8
GSLAYER
 10
6524.289883726
 20
2364.2711535676
  0
VERTEX
  8
GSLAYER
 10
6524.8510691313
 20
2364.2093708888
  0
VERTEX
  8
GSLAYER
 10
6525.4225515165
 20
2364.1887766625
  0
VERTEX
  8
GSLAYER
 10
6525.9948919834
 20
2364.2093708888
  0
VERTEX
  8
GSLAYER
 10
6526.5586516337
 20
2364.2711535676
  0
VERTEX
  8
GSLAYER
 10
6527.1138304675
 20
2364.3741246988
  0
VERTEX
  8
GSLAYER
 10
6527.6604284846
 20
2364.5182842826
  0
VERTEX
  8
GSLAYER
 10
6528.2001618484
 20
2364.6967675769
  0
VERTEX
  8
GSLAYER
 10
6528.7347467223
 20
2364.9027098395
  0
VERTEX
  8
GSLAYER
 10
6529.2641831062
 20
2365.1361110704
  0
VERTEX
  8
GSLAYER
 10
6529.7884710002
 20
2365.3969712696
  0
VERTEX
  8
GSLAYER
 10
6530.7632517654
 20
2366.023378985
  0
VERTEX
  8
GSLAYER
 10
6531.6281980782
 20
2366.7767844289
  0
VERTEX
  8
GSLAYER
 10
6532.3833099386
 20
2367.6571876014
  0
VERTEX
  8
GSLAYER
 10
6533.0285873466
 20
2368.6645885025
  0
VERTEX
  8
GSLAYER
 10
6533.5451525056
 20
2369.7269073403
  0
VERTEX
  8
GSLAYER
 10
6533.9141276192
 20
2370.7995232913
  0
VERTEX
  8
GSLAYER
 10
6534.1355126874
 20
2371.8824363553
  0
VERTEX
  8
GSLAYER
 10
6534.2093077101
 20
2372.9756465325
  0
VERTEX
  8
GSLAYER
 10
6534.1355126874
 20
2374.1066127912
  0
VERTEX
  8
GSLAYER
 10
6533.9141276192
 20
2375.2204171946
  0
VERTEX
  8
GSLAYER
 10
6533.5451525056
 20
2376.3170597428
  0
VERTEX
  8
GSLAYER
 10
6533.0285873466
 20
2377.3965404358
  0
VERTEX
  8
GSLAYER
 10
6532.7136713775
 20
2377.9045313502
  0
VERTEX
  8
GSLAYER
 10
6532.3730129587
 20
2378.3850632962
  0
VERTEX
  8
GSLAYER
 10
6532.0066120901
 20
2378.8381362739
  0
VERTEX
  8
GSLAYER
 10
6531.6144687717
 20
2379.2637502832
  0
VERTEX
  8
GSLAYER
 10
6531.1948668402
 20
2379.6584729532
  0
VERTEX
  8
GSLAYER
 10
6530.7460901322
 20
2380.0188719127
  0
VERTEX
  8
GSLAYER
 10
6530.2681386479
 20
2380.3449471617
  0
VERTEX
  8
GSLAYER
 10
6529.7610123871
 20
2380.6366987004
  0
VERTEX
  8
GSLAYER
 10
6528.6763971695
 20
2381.1292439451
  0
VERTEX
  8
GSLAYER
 10
6527.5917819518
 20
2381.481061977
  0
VERTEX
  8
GSLAYER
 10
6526.5071667342
 20
2381.6921527961
  0
VERTEX
  8
GSLAYER
 10
6525.4225515165
 20
2381.7625164025
  0
SEQEND
  0
POLYLINE
  8
GSLAYER
 70
128
 66
1
  0
VERTEX
  8
GSLAYER
 10
6525.8344307131
 20
2372.5637620074
  0
VERTEX
  8
GSLAYER
 10
6533.3855493169
 20
2372.5637620074
  0
VERTEX
  8
GSLAYER
 10
6533.3855493169
 20
2372.5088440707
  0
VERTEX
  8
GSLAYER
 10
6533.2911603344
 20
2371.6198599705
  0
VERTEX
  8
GSLAYER
 10
6533.0903692261
 20
2370.7377406125
  0
VERTEX
  8
GSLAYER
 10
6532.783175992
 20
2369.8624859965
  0
VERTEX
  8
GSLAYER
 10
6532.3695806321
 20
2368.9940961227
  0
VERTEX
  8
GSLAYER
 10
6531.772355797
 20
2368.0879501673
  0
VERTEX
  8
GSLAYER
 10
6531.0790258161
 20
2367.2916400854
  0
VERTEX
  8
GSLAYER
 10
6530.2895906894
 20
2366.6051658768
  0
VERTEX
  8
GSLAYER
 10
6529.4040504167
 20
2366.0285275415
  0
VERTEX
  8
GSLAYER
 10
6528.5459687572
 20
2365.6149268309
  0
VERTEX
  8
GSLAYER
 10
6527.6741577911
 20
2365.3077296225
  0
VERTEX
  8
GSLAYER
 10
6526.7886175185
 20
2365.1069359165
  0
VERTEX
  8
GSLAYER
 10
6525.8893479393
 20
2365.0125457128
  0
VERTEX
  8
GSLAYER
 10
6525.8344307131
 20
2365.0125457128
  0
VERTEX
  8
GSLAYER
 10
6525.8344307131
 20
2372.5637620074
  0
SEQEND
  0
POLYLINE
  8
GSLAYER
 70
128
 66
1
  0
VERTEX
  8
GSLAYER
 10
6525.01067232
 20
2372.5637620074
  0
VERTEX
  8
GSLAYER
 10
6525.01067232
 20
2365.0125457128
  0
VERTEX
  8
GSLAYER
 10
6524.9557550937
 20
2365.0125457128
  0
VERTEX
  8
GSLAYER
 10
6524.0667824945
 20
2365.1069359165
  0
VERTEX
  8
GSLAYER
 10
6523.1846745485
 20
2365.3077296225
  0
VERTEX
  8
GSLAYER
 10
6522.3094312558
 20
2365.6149268309
  0
VERTEX
  8
GSLAYER
 10
6521.4410526163
 20
2366.0285275415
  0
VERTEX
  8
GSLAYER
 10
6520.5349183839
 20
2366.625760103
  0
VERTEX
  8
GSLAYER
 10
6519.7386186038
 20
2367.3190990537
  0
VERTEX
  8
GSLAYER
 10
6519.0521532762
 20
2368.1085443936
  0
VERTEX
  8
GSLAYER
 10
6518.475522401
 20
2368.9940961227
  0
VERTEX
  8
GSLAYER
 10
6518.0619270411
 20
2369.8521888834
  0
VERTEX
  8
GSLAYER
 10
6517.754733807
 20
2370.7240111283
  0
VERTEX
  8
GSLAYER
 10
6517.5539426987
 20
2371.6095628574
  0
VERTEX
  8
GSLAYER
 10
6517.4595537161
 20
2372.5088440707
  0
VERTEX
  8
GSLAYER
 10
6517.4595537161
 20
2372.5637620074
  0
VERTEX
  8
GSLAYER
 10
6525.01067232
 20
2372.5637620074
  0
SEQEND
  0
POLYLINE
  8
GSLAYER
 70
128
 66
1
  0
VERTEX
  8
GSLAYER
 10
6525.8344307131
 20
2373.3875310577
  0
VERTEX
  8
GSLAYER
 10
6525.8344307131
 20
2380.9387473522
  0
VERTEX
  8
GSLAYER
 10
6525.8893479393
 20
2380.9387473522
  0
VERTEX
  8
GSLAYER
 10
6526.7783205386
 20
2380.8443571485
  0
VERTEX
  8
GSLAYER
 10
6527.6604284846
 20
2380.6435634425
  0
VERTEX
  8
GSLAYER
 10
6528.5356717773
 20
2380.3363662341
  0
VERTEX
  8
GSLAYER
 10
6529.4040504167
 20
2379.9227655235
  0
VERTEX
  8
GSLAYER
 10
6530.3101846492
 20
2379.325532962
  0
VERTEX
  8
GSLAYER
 10
6531.1064844292
 20
2378.6321940113
  0
VERTEX
  8
GSLAYER
 10
6531.7929497569
 20
2377.8427486714
  0
VERTEX
  8
GSLAYER
 10
6532.3695806321
 20
2376.9571969423
  0
VERTEX
  8
GSLAYER
 10
6532.783175992
 20
2376.0991041816
  0
VERTEX
  8
GSLAYER
 10
6533.0903692261
 20
2375.2272819367
  0
VERTEX
  8
GSLAYER
 10
6533.2911603344
 20
2374.3417302076
  0
VERTEX
  8
GSLAYER
 10
6533.3855493169
 20
2373.4424489943
  0
VERTEX
  8
GSLAYER
 10
6533.3855493169
 20
2373.3875310577
  0
VERTEX
  8
GSLAYER
 10
6525.8344307131
 20
2373.3875310577
  0
SEQEND
  0
POLYLINE
  8
GSLAYER
 70
128
 66
1
  0
VERTEX
  8
GSLAYER
 10
6525.01067232
 20
2373.3875310577
  0
VERTEX
  8
GSLAYER
 10
6517.4595537161
 20
2373.3875310577
  0
VERTEX
  8
GSLAYER
 10
6517.4595537161
 20
2373.4424489943
  0
VERTEX
  8
GSLAYER
 10
6517.5539426987
 20
2374.3314330945
  0
VERTEX
  8
GSLAYER
 10
6517.754733807
 20
2375.2135524525
  0
VERTEX
  8
GSLAYER
 10
6518.0619270411
 20
2376.0888070685
  0
VERTEX
  8
GSLAYER
 10
6518.475522401
 20
2376.9571969423
  0
VERTEX
  8
GSLAYER
 10
6519.072747236
 20
2377.8633428977
  0
VERTEX
  8
GSLAYER
 10
6519.7660772169
 20
2378.6596529797
  0
VERTEX
  8
GSLAYER
 10
6520.5555123437
 20
2379.3461271882
  0
VERTEX
  8
GSLAYER
 10
6521.4410526163
 20
2379.9227655235
  0
VERTEX
  8
GSLAYER
 10
6522.2991342758
 20
2380.3363662341
  0
VERTEX
  8
GSLAYER
 10
6523.1709452419
 20
2380.6435634425
  0
VERTEX
  8
GSLAYER
 10
6524.0564855146
 20
2380.8443571485
  0
VERTEX
  8
GSLAYER
 10
6524.9557550937
 20
2380.9387473522
  0
VERTEX
  8
GSLAYER
 10
6525.01067232
 20
2380.9387473522
  0
VERTEX
  8
GSLAYER
 10
6525.01067232
 20
2373.3875310577
  0
SEQEND
  0
POLYLINE
  8
GSLAYER
 70
128
 66
1
  0
VERTEX
  8
GSLAYER
 10
6469.5068302848
 20
2583.0617170603
  0
VERTEX
  8
GSLAYER
 10
6468.4136342505
 20
2582.9913534539
  0
VERTEX
  8
GSLAYER
 10
6467.3307351962
 20
2582.7802626348
  0
VERTEX
  8
GSLAYER
 10
6466.2581331218
 20
2582.4284446029
  0
VERTEX
  8
GSLAYER
 10
6465.1958280273
 20
2581.9358993582
  0
VERTEX
  8
GSLAYER
 10
6464.1987371389
 20
2581.3009107153
  0
VERTEX
  8
GSLAYER
 10
6463.3217776829
 20
2580.5492214569
  0
VERTEX
  8
GSLAYER
 10
6462.5649496592
 20
2579.680831583
  0
VERTEX
  8
GSLAYER
 10
6461.9282530678
 20
2578.6957410937
  0
VERTEX
  8
GSLAYER
 10
6461.6562411817
 20
2578.1697302313
  0
VERTEX
  8
GSLAYER
 10
6461.4168363987
 20
2577.6351384414
  0
VERTEX
  8
GSLAYER
 10
6461.2100387188
 20
2577.0919657238
  0
VERTEX
  8
GSLAYER
 10
6461.0358481419
 20
2576.5402120787
  0
VERTEX
  8
GSLAYER
 10
6460.8976969947
 20
2575.9815936914
  0
VERTEX
  8
GSLAYER
 10
6460.7990176039
 20
2575.4178267476
  0
VERTEX
  8
GSLAYER
 10
6460.7398099694
 20
2574.8489112473
  0
VERTEX
  8
GSLAYER
 10
6460.7200740912
 20
2574.2748471903
  0
VERTEX
  8
GSLAYER
 10
6460.7938691139
 20
2573.1816370131
  0
VERTEX
  8
GSLAYER
 10
6461.0152541821
 20
2572.0987239491
  0
VERTEX
  8
GSLAYER
 10
6461.3842292957
 20
2571.0261079982
  0
VERTEX
  8
GSLAYER
 10
6461.9007944547
 20
2569.9637891604
  0
VERTEX
  8
GSLAYER
 10
6462.5580850059
 20
2568.9563882592
  0
VERTEX
  8
GSLAYER
 10
6463.3217776829
 20
2568.0759850867
  0
VERTEX
  8
GSLAYER
 10
6464.1918724856
 20
2567.3225796428
  0
VERTEX
  8
GSLAYER
 10
6465.1683694142
 20
2566.6961719275
  0
VERTEX
  8
GSLAYER
 10
6465.6917992265
 20
2566.4353117282
  0
VERTEX
  8
GSLAYER
 10
6466.2186613655
 20
2566.2019104973
  0
VERTEX
  8
GSLAYER
 10
6466.748955831
 20
2565.9959682347
  0
VERTEX
  8
GSLAYER
 10
6467.2826826233
 20
2565.8174849405
  0
VERTEX
  8
GSLAYER
 10
6467.8232740688
 20
2565.6733253567
  0
VERTEX
  8
GSLAYER
 10
6468.3741624942
 20
2565.5703542254
  0
VERTEX
  8
GSLAYER
 10
6468.9353478995
 20
2565.5085715466
  0
VERTEX
  8
GSLAYER
 10
6469.5068302848
 20
2565.4879773203
  0
VERTEX
  8
GSLAYER
 10
6470.0791707517
 20
2565.5085715466
  0
VERTEX
  8
GSLAYER
 10
6470.642930402
 20
2565.5703542254
  0
VERTEX
  8
GSLAYER
 10
6471.1981092357
 20
2565.6733253567
  0
VERTEX
  8
GSLAYER
 10
6471.7447072528
 20
2565.8174849405
  0
VERTEX
  8
GSLAYER
 10
6472.2844406167
 20
2565.9959682347
  0
VERTEX
  8
GSLAYER
 10
6472.8190254905
 20
2566.2019104973
  0
VERTEX
  8
GSLAYER
 10
6473.3484618745
 20
2566.4353117282
  0
VERTEX
  8
GSLAYER
 10
6473.8727497684
 20
2566.6961719275
  0
VERTEX
  8
GSLAYER
 10
6474.8475305337
 20
2567.3225796428
  0
VERTEX
  8
GSLAYER
 10
6475.7124768465
 20
2568.0759850867
  0
VERTEX
  8
GSLAYER
 10
6476.4675887069
 20
2568.9563882592
  0
VERTEX
  8
GSLAYER
 10
6477.1128661148
 20
2569.9637891604
  0
VERTEX
  8
GSLAYER
 10
6477.6294312739
 20
2571.0261079982
  0
VERTEX
  8
GSLAYER
 10
6477.9984063874
 20
2572.0987239491
  0
VERTEX
  8
GSLAYER
 10
6478.2197914556
 20
2573.1816370131
  0
VERTEX
  8
GSLAYER
 10
6478.2935864783
 20
2574.2748471903
  0
VERTEX
  8
GSLAYER
 10
6478.2197914556
 20
2575.405813449
  0
VERTEX
  8
GSLAYER
 10
6477.9984063874
 20
2576.5196178524
  0
VERTEX
  8
GSLAYER
 10
6477.6294312739
 20
2577.6162604006
  0
VERTEX
  8
GSLAYER
 10
6477.1128661148
 20
2578.6957410937
  0
VERTEX
  8
GSLAYER
 10
6476.7979501458
 20
2579.203732008
  0
VERTEX
  8
GSLAYER
 10
6476.4572917269
 20
2579.684263954
  0
VERTEX
  8
GSLAYER
 10
6476.0908908583
 20
2580.1373369317
  0
VERTEX
  8
GSLAYER
 10
6475.6987475399
 20
2580.562950941
  0
VERTEX
  8
GSLAYER
 10
6475.2791456084
 20
2580.957673611
  0
VERTEX
  8
GSLAYER
 10
6474.8303689005
 20
2581.3180725705
  0
VERTEX
  8
GSLAYER
 10
6474.3524174161
 20
2581.6441478196
  0
VERTEX
  8
GSLAYER
 10
6473.8452911553
 20
2581.9358993582
  0
VERTEX
  8
GSLAYER
 10
6472.7606759377
 20
2582.4284446029
  0
VERTEX
  8
GSLAYER
 10
6471.6760607201
 20
2582.7802626348
  0
VERTEX
  8
GSLAYER
 10
6470.5914455024
 20
2582.9913534539
  0
VERTEX
  8
GSLAYER
 10
6469.5068302848
 20
2583.0617170603
  0
SEQEND
  0
POLYLINE
  8
GSLAYER
 70
128
 66
1
  0
VERTEX
  8
GSLAYER
 10
6469.9187094813
 20
2573.8629626652
  0
VERTEX
  8
GSLAYER
 10
6477.4698280852
 20
2573.8629626652
  0
VERTEX
  8
GSLAYER
 10
6477.4698280852
 20
2573.8080447285
  0
VERTEX
  8
GSLAYER
 10
6477.3754391026
 20
2572.9190606283
  0
VERTEX
  8
GSLAYER
 10
6477.1746479943
 20
2572.0369412703
  0
VERTEX
  8
GSLAYER
 10
6476.8674547602
 20
2571.1616866544
  0
VERTEX
  8
GSLAYER
 10
6476.4538594003
 20
2570.2932967805
  0
VERTEX
  8
GSLAYER
 10
6475.8566345653
 20
2569.3871508251
  0
VERTEX
  8
GSLAYER
 10
6475.1633045844
 20
2568.5908407432
  0
VERTEX
  8
GSLAYER
 10
6474.3738694576
 20
2567.9043665346
  0
VERTEX
  8
GSLAYER
 10
6473.488329185
 20
2567.3277281994
  0
VERTEX
  8
GSLAYER
 10
6472.6302475254
 20
2566.9141274887
  0
VERTEX
  8
GSLAYER
 10
6471.7584365594
 20
2566.6069302803
  0
VERTEX
  8
GSLAYER
 10
6470.8728962867
 20
2566.4061365743
  0
VERTEX
  8
GSLAYER
 10
6469.9736267075
 20
2566.3117463706
  0
VERTEX
  8
GSLAYER
 10
6469.9187094813
 20
2566.3117463706
  0
VERTEX
  8
GSLAYER
 10
6469.9187094813
 20
2573.8629626652
  0
SEQEND
  0
POLYLINE
  8
GSLAYER
 70
128
 66
1
  0
VERTEX
  8
GSLAYER
 10
6469.0949510882
 20
2573.8629626652
  0
VERTEX
  8
GSLAYER
 10
6469.0949510882
 20
2566.3117463706
  0
VERTEX
  8
GSLAYER
 10
6469.040033862
 20
2566.3117463706
  0
VERTEX
  8
GSLAYER
 10
6468.1510612627
 20
2566.4061365743
  0
VERTEX
  8
GSLAYER
 10
6467.2689533167
 20
2566.6069302803
  0
VERTEX
  8
GSLAYER
 10
6466.393710024
 20
2566.9141274887
  0
VERTEX
  8
GSLAYER
 10
6465.5253313846
 20
2567.3277281994
  0
VERTEX
  8
GSLAYER
 10
6464.6191971521
 20
2567.9249607608
  0
VERTEX
  8
GSLAYER
 10
6463.8228973721
 20
2568.6182997115
  0
VERTEX
  8
GSLAYER
 10
6463.1364320444
 20
2569.4077450514
  0
VERTEX
  8
GSLAYER
 10
6462.5598011692
 20
2570.2932967805
  0
VERTEX
  8
GSLAYER
 10
6462.1462058093
 20
2571.1513895412
  0
VERTEX
  8
GSLAYER
 10
6461.8390125752
 20
2572.0232117861
  0
VERTEX
  8
GSLAYER
 10
6461.6382214669
 20
2572.9087635152
  0
VERTEX
  8
GSLAYER
 10
6461.5438324843
 20
2573.8080447285
  0
VERTEX
  8
GSLAYER
 10
6461.5438324843
 20
2573.8629626652
  0
VERTEX
  8
GSLAYER
 10
6469.0949510882
 20
2573.8629626652
  0
SEQEND
  0
POLYLINE
  8
GSLAYER
 70
128
 66
1
  0
VERTEX
  8
GSLAYER
 10
6469.9187094813
 20
2574.6867317155
  0
VERTEX
  8
GSLAYER
 10
6469.9187094813
 20
2582.23794801
  0
VERTEX
  8
GSLAYER
 10
6469.9736267075
 20
2582.23794801
  0
VERTEX
  8
GSLAYER
 10
6470.8625993068
 20
2582.1435578063
  0
VERTEX
  8
GSLAYER
 10
6471.7447072528
 20
2581.9427641003
  0
VERTEX
  8
GSLAYER
 10
6472.6199505455
 20
2581.6355668919
  0
VERTEX
  8
GSLAYER
 10
6473.488329185
 20
2581.2219661813
  0
VERTEX
  8
GSLAYER
 10
6474.3944634174
 20
2580.6247336198
  0
VERTEX
  8
GSLAYER
 10
6475.1907631975
 20
2579.9313946691
  0
VERTEX
  8
GSLAYER
 10
6475.8772285251
 20
2579.1419493292
  0
VERTEX
  8
GSLAYER
 10
6476.4538594003
 20
2578.2563976002
  0
VERTEX
  8
GSLAYER
 10
6476.8674547602
 20
2577.3983048394
  0
VERTEX
  8
GSLAYER
 10
6477.1746479943
 20
2576.5264825945
  0
VERTEX
  8
GSLAYER
 10
6477.3754391026
 20
2575.6409308654
  0
VERTEX
  8
GSLAYER
 10
6477.4698280852
 20
2574.7416496522
  0
VERTEX
  8
GSLAYER
 10
6477.4698280852
 20
2574.6867317155
  0
VERTEX
  8
GSLAYER
 10
6469.9187094813
 20
2574.6867317155
  0
SEQEND
  0
POLYLINE
  8
GSLAYER
 70
128
 66
1
  0
VERTEX
  8
GSLAYER
 10
6469.0949510882
 20
2574.6867317155
  0
VERTEX
  8
GSLAYER
 10
6461.5438324843
 20
2574.6867317155
  0
VERTEX
  8
GSLAYER
 10
6461.5438324843
 20
2574.7416496522
  0
VERTEX
  8
GSLAYER
 10
6461.6382214669
 20
2575.6306337523
  0
VERTEX
  8
GSLAYER
 10
6461.8390125752
 20
2576.5127531103
  0
VERTEX
  8
GSLAYER
 10
6462.1462058093
 20
2577.3880077263
  0
VERTEX
  8
GSLAYER
 10
6462.5598011692
 20
2578.2563976002
  0
VERTEX
  8
GSLAYER
 10
6463.1570260043
 20
2579.1625435555
  0
VERTEX
  8
GSLAYER
 10
6463.8503559852
 20
2579.9588536375
  0
VERTEX
  8
GSLAYER
 10
6464.6397911119
 20
2580.6453278461
  0
VERTEX
  8
GSLAYER
 10
6465.5253313846
 20
2581.2219661813
  0
VERTEX
  8
GSLAYER
 10
6466.3834130441
 20
2581.6355668919
  0
VERTEX
  8
GSLAYER
 10
6467.2552240102
 20
2581.9427641003
  0
VERTEX
  8
GSLAYER
 10
6468.1407642828
 20
2582.1435578063
  0
VERTEX
  8
GSLAYER
 10
6469.040033862
 20
2582.23794801
  0
VERTEX
  8
GSLAYER
 10
6469.0949510882
 20
2582.23794801
  0
VERTEX
  8
GSLAYER
 10
6469.0949510882
 20
2574.6867317155
  0
SEQEND
  0
POLYLINE
  8
GSLAYER
 70
128
 66
1
  0
VERTEX
  8
GSLAYER
 10
6370.4561241028
 20
2693.296993611
  0
VERTEX
  8
GSLAYER
 10
6369.3629280685
 20
2693.2266300046
  0
VERTEX
  8
GSLAYER
 10
6368.2800290142
 20
2693.0155391855
  0
VERTEX
  8
GSLAYER
 10
6367.2074269398
 20
2692.6637211536
  0
VERTEX
  8
GSLAYER
 10
6366.1451218453
 20
2692.1711759089
  0
VERTEX
  8
GSLAYER
 10
6365.1480309569
 20
2691.536187266
  0
VERTEX
  8
GSLAYER
 10
6364.2710715009
 20
2690.7844980076
  0
VERTEX
  8
GSLAYER
 10
6363.5142434772
 20
2689.9161081337
  0
VERTEX
  8
GSLAYER
 10
6362.8775468858
 20
2688.9310176444
  0
VERTEX
  8
GSLAYER
 10
6362.6055349998
 20
2688.405006782
  0
VERTEX
  8
GSLAYER
 10
6362.3661302168
 20
2687.8704149921
  0
VERTEX
  8
GSLAYER
 10
6362.1593325368
 20
2687.3272422745
  0
VERTEX
  8
GSLAYER
 10
6361.9851419599
 20
2686.7754886294
  0
VERTEX
  8
GSLAYER
 10
6361.8469908127
 20
2686.2168702421
  0
VERTEX
  8
GSLAYER
 10
6361.7483114219
 20
2685.6531032983
  0
VERTEX
  8
GSLAYER
 10
6361.6891037874
 20
2685.084187798
  0
VERTEX
  8
GSLAYER
 10
6361.6693679092
 20
2684.510123741
  0
VERTEX
  8
GSLAYER
 10
6361.7431629319
 20
2683.4169135638
  0
VERTEX
  8
GSLAYER
 10
6361.9645480001
 20
2682.3340004998
  0
VERTEX
  8
GSLAYER
 10
6362.3335231137
 20
2681.2613845489
  0
VERTEX
  8
GSLAYER
 10
6362.8500882727
 20
2680.1990657111
  0
VERTEX
  8
GSLAYER
 10
6363.5073788239
 20
2679.19166481
  0
VERTEX
  8
GSLAYER
 10
6364.2710715009
 20
2678.3112616374
  0
VERTEX
  8
GSLAYER
 10
6365.1411663037
 20
2677.5578561935
  0
VERTEX
  8
GSLAYER
 10
6366.1176632322
 20
2676.9314484782
  0
VERTEX
  8
GSLAYER
 10
6366.6410930445
 20
2676.6705882789
  0
VERTEX
  8
GSLAYER
 10
6367.1679551835
 20
2676.437187048
  0
VERTEX
  8
GSLAYER
 10
6367.6982496491
 20
2676.2312447854
  0
VERTEX
  8
GSLAYER
 10
6368.2319764413
 20
2676.0527614912
  0
VERTEX
  8
GSLAYER
 10
6368.7725678868
 20
2675.9086019074
  0
VERTEX
  8
GSLAYER
 10
6369.3234563122
 20
2675.8056307761
  0
VERTEX
  8
GSLAYER
 10
6369.8846417175
 20
2675.7438480973
  0
VERTEX
  8
GSLAYER
 10
6370.4561241028
 20
2675.723253871
  0
VERTEX
  8
GSLAYER
 10
6371.0284645697
 20
2675.7438480973
  0
VERTEX
  8
GSLAYER
 10
6371.59222422
 20
2675.8056307761
  0
VERTEX
  8
GSLAYER
 10
6372.1474030537
 20
2675.9086019074
  0
VERTEX
  8
GSLAYER
 10
6372.6940010708
 20
2676.0527614912
  0
VERTEX
  8
GSLAYER
 10
6373.2337344347
 20
2676.2312447854
  0
VERTEX
  8
GSLAYER
 10
6373.7683193086
 20
2676.437187048
  0
VERTEX
  8
GSLAYER
 10
6374.2977556925
 20
2676.6705882789
  0
VERTEX
  8
GSLAYER
 10
6374.8220435865
 20
2676.9314484782
  0
VERTEX
  8
GSLAYER
 10
6375.7968243517
 20
2677.5578561935
  0
VERTEX
  8
GSLAYER
 10
6376.6617706645
 20
2678.3112616374
  0
VERTEX
  8
GSLAYER
 10
6377.4168825249
 20
2679.19166481
  0
VERTEX
  8
GSLAYER
 10
6378.0621599328
 20
2680.1990657111
  0
VERTEX
  8
GSLAYER
 10
6378.5787250919
 20
2681.2613845489
  0
VERTEX
  8
GSLAYER
 10
6378.9477002055
 20
2682.3340004998
  0
VERTEX
  8
GSLAYER
 10
6379.1690852736
 20
2683.4169135638
  0
VERTEX
  8
GSLAYER
 10
6379.2428802963
 20
2684.510123741
  0
VERTEX
  8
GSLAYER
 10
6379.1690852736
 20
2685.6410899997
  0
VERTEX
  8
GSLAYER
 10
6378.9477002055
 20
2686.7548944031
  0
VERTEX
  8
GSLAYER
 10
6378.5787250919
 20
2687.8515369513
  0
VERTEX
  8
GSLAYER
 10
6378.0621599328
 20
2688.9310176444
  0
VERTEX
  8
GSLAYER
 10
6377.7472439638
 20
2689.4390085587
  0
VERTEX
  8
GSLAYER
 10
6377.406585545
 20
2689.9195405047
  0
VERTEX
  8
GSLAYER
 10
6377.0401846763
 20
2690.3726134824
  0
VERTEX
  8
GSLAYER
 10
6376.6480413579
 20
2690.7982274917
  0
VERTEX
  8
GSLAYER
 10
6376.2284394264
 20
2691.1929501617
  0
VERTEX
  8
GSLAYER
 10
6375.7796627185
 20
2691.5533491212
  0
VERTEX
  8
GSLAYER
 10
6375.3017112341
 20
2691.8794243703
  0
VERTEX
  8
GSLAYER
 10
6374.7945849733
 20
2692.1711759089
  0
VERTEX
  8
GSLAYER
 10
6373.7099697557
 20
2692.6637211536
  0
VERTEX
  8
GSLAYER
 10
6372.6253545381
 20
2693.0155391855
  0
VERTEX
  8
GSLAYER
 10
6371.5407393204
 20
2693.2266300046
  0
VERTEX
  8
GSLAYER
 10
6370.4561241028
 20
2693.296993611
  0
SEQEND
  0
POLYLINE
  8
GSLAYER
 70
128
 66
1
  0
VERTEX
  8
GSLAYER
 10
6370.8680032994
 20
2684.0982392159
  0
VERTEX
  8
GSLAYER
 10
6378.4191219032
 20
2684.0982392159
  0
VERTEX
  8
GSLAYER
 10
6378.4191219032
 20
2684.0433212792
  0
VERTEX
  8
GSLAYER
 10
6378.3247329206
 20
2683.1543371791
  0
VERTEX
  8
GSLAYER
 10
6378.1239418123
 20
2682.272217821
  0
VERTEX
  8
GSLAYER
 10
6377.8167485782
 20
2681.3969632051
  0
VERTEX
  8
GSLAYER
 10
6377.4031532183
 20
2680.5285733312
  0
VERTEX
  8
GSLAYER
 10
6376.8059283833
 20
2679.6224273758
  0
VERTEX
  8
GSLAYER
 10
6376.1125984024
 20
2678.8261172939
  0
VERTEX
  8
GSLAYER
 10
6375.3231632756
 20
2678.1396430853
  0
VERTEX
  8
GSLAYER
 10
6374.437623003
 20
2677.5630047501
  0
VERTEX
  8
GSLAYER
 10
6373.5795413435
 20
2677.1494040394
  0
VERTEX
  8
GSLAYER
 10
6372.7077303774
 20
2676.842206831
  0
VERTEX
  8
GSLAYER
 10
6371.8221901047
 20
2676.641413125
  0
VERTEX
  8
GSLAYER
 10
6370.9229205256
 20
2676.5470229213
  0
VERTEX
  8
GSLAYER
 10
6370.8680032994
 20
2676.5470229213
  0
VERTEX
  8
GSLAYER
 10
6370.8680032994
 20
2684.0982392159
  0
SEQEND
  0
POLYLINE
  8
GSLAYER
 70
128
 66
1
  0
VERTEX
  8
GSLAYER
 10
6370.0442449062
 20
2684.0982392159
  0
VERTEX
  8
GSLAYER
 10
6370.0442449062
 20
2676.5470229213
  0
VERTEX
  8
GSLAYER
 10
6369.98932768
 20
2676.5470229213
  0
VERTEX
  8
GSLAYER
 10
6369.1003550807
 20
2676.641413125
  0
VERTEX
  8
GSLAYER
 10
6368.2182471347
 20
2676.842206831
  0
VERTEX
  8
GSLAYER
 10
6367.343003842
 20
2677.1494040394
  0
VERTEX
  8
GSLAYER
 10
6366.4746252026
 20
2677.5630047501
  0
VERTEX
  8
GSLAYER
 10
6365.5684909701
 20
2678.1602373115
  0
VERTEX
  8
GSLAYER
 10
6364.7721911901
 20
2678.8535762622
  0
VERTEX
  8
GSLAYER
 10
6364.0857258624
 20
2679.6430216021
  0
VERTEX
  8
GSLAYER
 10
6363.5090949872
 20
2680.5285733312
  0
VERTEX
  8
GSLAYER
 10
6363.0954996274
 20
2681.3866660919
  0
VERTEX
  8
GSLAYER
 10
6362.7883063932
 20
2682.2584883368
  0
VERTEX
  8
GSLAYER
 10
6362.5875152849
 20
2683.1440400659
  0
VERTEX
  8
GSLAYER
 10
6362.4931263024
 20
2684.0433212792
  0
VERTEX
  8
GSLAYER
 10
6362.4931263024
 20
2684.0982392159
  0
VERTEX
  8
GSLAYER
 10
6370.0442449062
 20
2684.0982392159
  0
SEQEND
  0
POLYLINE
  8
GSLAYER
 70
128
 66
1
  0
VERTEX
  8
GSLAYER
 10
6370.8680032994
 20
2684.9220082662
  0
VERTEX
  8
GSLAYER
 10
6370.8680032994
 20
2692.4732245607
  0
VERTEX
  8
GSLAYER
 10
6370.9229205256
 20
2692.4732245607
  0
VERTEX
  8
GSLAYER
 10
6371.8118931248
 20
2692.378834357
  0
VERTEX
  8
GSLAYER
 10
6372.6940010708
 20
2692.178040651
  0
VERTEX
  8
GSLAYER
 10
6373.5692443635
 20
2691.8708434427
  0
VERTEX
  8
GSLAYER
 10
6374.437623003
 20
2691.457242732
  0
VERTEX
  8
GSLAYER
 10
6375.3437572354
 20
2690.8600101705
  0
VERTEX
  8
GSLAYER
 10
6376.1400570155
 20
2690.1666712198
  0
VERTEX
  8
GSLAYER
 10
6376.8265223431
 20
2689.3772258799
  0
VERTEX
  8
GSLAYER
 10
6377.4031532183
 20
2688.4916741509
  0
VERTEX
  8
GSLAYER
 10
6377.8167485782
 20
2687.6335813901
  0
VERTEX
  8
GSLAYER
 10
6378.1239418123
 20
2686.7617591452
  0
VERTEX
  8
GSLAYER
 10
6378.3247329206
 20
2685.8762074161
  0
VERTEX
  8
GSLAYER
 10
6378.4191219032
 20
2684.9769262029
  0
VERTEX
  8
GSLAYER
 10
6378.4191219032
 20
2684.9220082662
  0
VERTEX
  8
GSLAYER
 10
6370.8680032994
 20
2684.9220082662
  0
SEQEND
  0
POLYLINE
  8
GSLAYER
 70
128
 66
1
  0
VERTEX
  8
GSLAYER
 10
6370.0442449062
 20
2684.9220082662
  0
VERTEX
  8
GSLAYER
 10
6362.4931263024
 20
2684.9220082662
  0
VERTEX
  8
GSLAYER
 10
6362.4931263024
 20
2684.9769262029
  0
VERTEX
  8
GSLAYER
 10
6362.5875152849
 20
2685.865910303
  0
VERTEX
  8
GSLAYER
 10
6362.7883063932
 20
2686.748029661
  0
VERTEX
  8
GSLAYER
 10
6363.0954996274
 20
2687.623284277
  0
VERTEX
  8
GSLAYER
 10
6363.5090949872
 20
2688.4916741509
  0
VERTEX
  8
GSLAYER
 10
6364.1063198223
 20
2689.3978201062
  0
VERTEX
  8
GSLAYER
 10
6364.7996498032
 20
2690.1941301882
  0
VERTEX
  8
GSLAYER
 10
6365.5890849299
 20
2690.8806043968
  0
VERTEX
  8
GSLAYER
 10
6366.4746252026
 20
2691.457242732
  0
VERTEX
  8
GSLAYER
 10
6367.3327068621
 20
2691.8708434427
  0
VERTEX
  8
GSLAYER
 10
6368.2045178282
 20
2692.178040651
  0
VERTEX
  8
GSLAYER
 10
6369.0900581008
 20
2692.378834357
  0
VERTEX
  8
GSLAYER
 10
6369.98932768
 20
2692.4732245607
  0
VERTEX
  8
GSLAYER
 10
6370.0442449062
 20
2692.4732245607
  0
VERTEX
  8
GSLAYER
 10
6370.0442449062
 20
2684.9220082662
  0
SEQEND
  0
POLYLINE
  8
GSLAYER
 70
128
 66
1
  0
VERTEX
  8
GSLAYER
 10
5856.0314887705
 20
1121.2460932357
  0
VERTEX
  8
GSLAYER
 10
5854.9382927363
 20
1121.1757296293
  0
VERTEX
  8
GSLAYER
 10
5853.855393682
 20
1120.9646388102
  0
VERTEX
  8
GSLAYER
 10
5852.7827916076
 20
1120.6128207783
  0
VERTEX
  8
GSLAYER
 10
5851.7204865131
 20
1120.1202755336
  0
VERTEX
  8
GSLAYER
 10
5850.7233956247
 20
1119.4852868907
  0
VERTEX
  8
GSLAYER
 10
5849.8464361687
 20
1118.7335976323
  0
VERTEX
  8
GSLAYER
 10
5849.089608145
 20
1117.8652077584
  0
VERTEX
  8
GSLAYER
 10
5848.4529115536
 20
1116.8801172691
  0
VERTEX
  8
GSLAYER
 10
5848.1808996675
 20
1116.3541064067
  0
VERTEX
  8
GSLAYER
 10
5847.9414948845
 20
1115.8195146168
  0
VERTEX
  8
GSLAYER
 10
5847.7346972046
 20
1115.2763418993
  0
VERTEX
  8
GSLAYER
 10
5847.5605066277
 20
1114.7245882541
  0
VERTEX
  8
GSLAYER
 10
5847.4223554805
 20
1114.1659698669
  0
VERTEX
  8
GSLAYER
 10
5847.3236760896
 20
1113.602202923
  0
VERTEX
  8
GSLAYER
 10
5847.2644684551
 20
1113.0332874227
  0
VERTEX
  8
GSLAYER
 10
5847.244732577
 20
1112.4592233657
  0
VERTEX
  8
GSLAYER
 10
5847.3185275997
 20
1111.3660131886
  0
VERTEX
  8
GSLAYER
 10
5847.5399126678
 20
1110.2831001245
  0
VERTEX
  8
GSLAYER
 10
5847.9088877814
 20
1109.2104841736
  0
VERTEX
  8
GSLAYER
 10
5848.4254529405
 20
1108.1481653358
  0
VERTEX
  8
GSLAYER
 10
5849.0827434917
 20
1107.1407644347
  0
VERTEX
  8
GSLAYER
 10
5849.8464361687
 20
1106.2603612622
  0
VERTEX
  8
GSLAYER
 10
5850.7165309714
 20
1105.5069558182
  0
VERTEX
  8
GSLAYER
 10
5851.6930279
 20
1104.8805481029
  0
VERTEX
  8
GSLAYER
 10
5852.2164577123
 20
1104.6196879036
  0
VERTEX
  8
GSLAYER
 10
5852.7433198512
 20
1104.3862866727
  0
VERTEX
  8
GSLAYER
 10
5853.2736143168
 20
1104.1803444101
  0
VERTEX
  8
GSLAYER
 10
5853.807341109
 20
1104.0018611159
  0
VERTEX
  8
GSLAYER
 10
5854.3479325545
 20
1103.8577015321
  0
VERTEX
  8
GSLAYER
 10
5854.89882098
 20
1103.7547304008
  0
VERTEX
  8
GSLAYER
 10
5855.4600063853
 20
1103.692947722
  0
VERTEX
  8
GSLAYER
 10
5856.0314887705
 20
1103.6723534958
  0
VERTEX
  8
GSLAYER
 10
5856.6038292374
 20
1103.692947722
  0
VERTEX
  8
GSLAYER
 10
5857.1675888877
 20
1103.7547304008
  0
VERTEX
  8
GSLAYER
 10
5857.7227677215
 20
1103.8577015321
  0
VERTEX
  8
GSLAYER
 10
5858.2693657386
 20
1104.0018611159
  0
VERTEX
  8
GSLAYER
 10
5858.8090991024
 20
1104.1803444101
  0
VERTEX
  8
GSLAYER
 10
5859.3436839763
 20
1104.3862866727
  0
VERTEX
  8
GSLAYER
 10
5859.8731203602
 20
1104.6196879036
  0
VERTEX
  8
GSLAYER
 10
5860.3974082542
 20
1104.8805481029
  0
VERTEX
  8
GSLAYER
 10
5861.3721890194
 20
1105.5069558182
  0
VERTEX
  8
GSLAYER
 10
5862.2371353322
 20
1106.2603612622
  0
VERTEX
  8
GSLAYER
 10
5862.9922471926
 20
1107.1407644347
  0
VERTEX
  8
GSLAYER
 10
5863.6375246006
 20
1108.1481653358
  0
VERTEX
  8
GSLAYER
 10
5864.1540897596
 20
1109.2104841736
  0
VERTEX
  8
GSLAYER
 10
5864.5230648732
 20
1110.2831001245
  0
VERTEX
  8
GSLAYER
 10
5864.7444499414
 20
1111.3660131886
  0
VERTEX
  8
GSLAYER
 10
5864.8182449641
 20
1112.4592233657
  0
VERTEX
  8
GSLAYER
 10
5864.7444499414
 20
1113.5901896244
  0
VERTEX
  8
GSLAYER
 10
5864.5230648732
 20
1114.7039940278
  0
VERTEX
  8
GSLAYER
 10
5864.1540897596
 20
1115.8006365761
  0
VERTEX
  8
GSLAYER
 10
5863.6375246006
 20
1116.8801172691
  0
VERTEX
  8
GSLAYER
 10
5863.3226086315
 20
1117.3881081834
  0
VERTEX
  8
GSLAYER
 10
5862.9819502127
 20
1117.8686401295
  0
VERTEX
  8
GSLAYER
 10
5862.6155493441
 20
1118.3217131071
  0
VERTEX
  8
GSLAYER
 10
5862.2234060257
 20
1118.7473271165
  0
VERTEX
  8
GSLAYER
 10
5861.8038040942
 20
1119.1420497864
  0
VERTEX
  8
GSLAYER
 10
5861.3550273862
 20
1119.5024487459
  0
VERTEX
  8
GSLAYER
 10
5860.8770759019
 20
1119.828523995
  0
VERTEX
  8
GSLAYER
 10
5860.3699496411
 20
1120.1202755336
  0
VERTEX
  8
GSLAYER
 10
5859.2853344235
 20
1120.6128207783
  0
VERTEX
  8
GSLAYER
 10
5858.2007192058
 20
1120.9646388102
  0
VERTEX
  8
GSLAYER
 10
5857.1161039882
 20
1121.1757296293
  0
VERTEX
  8
GSLAYER
 10
5856.0314887705
 20
1121.2460932357
  0
SEQEND
  0
POLYLINE
  8
GSLAYER
 70
128
 66
1
  0
VERTEX
  8
GSLAYER
 10
5856.4433679671
 20
1112.0473388406
  0
VERTEX
  8
GSLAYER
 10
5863.9944865709
 20
1112.0473388406
  0
VERTEX
  8
GSLAYER
 10
5863.9944865709
 20
1111.9924209039
  0
VERTEX
  8
GSLAYER
 10
5863.9000975884
 20
1111.1034368038
  0
VERTEX
  8
GSLAYER
 10
5863.6993064801
 20
1110.2213174457
  0
VERTEX
  8
GSLAYER
 10
5863.392113246
 20
1109.3460628298
  0
VERTEX
  8
GSLAYER
 10
5862.9785178861
 20
1108.4776729559
  0
VERTEX
  8
GSLAYER
 10
5862.381293051
 20
1107.5715270006
  0
VERTEX
  8
GSLAYER
 10
5861.6879630701
 20
1106.7752169186
  0
VERTEX
  8
GSLAYER
 10
5860.8985279434
 20
1106.08874271
  0
VERTEX
  8
GSLAYER
 10
5860.0129876707
 20
1105.5121043748
  0
VERTEX
  8
GSLAYER
 10
5859.1549060112
 20
1105.0985036641
  0
VERTEX
  8
GSLAYER
 10
5858.2830950451
 20
1104.7913064558
  0
VERTEX
  8
GSLAYER
 10
5857.3975547725
 20
1104.5905127498
  0
VERTEX
  8
GSLAYER
 10
5856.4982851933
 20
1104.4961225461
  0
VERTEX
  8
GSLAYER
 10
5856.4433679671
 20
1104.4961225461
  0
VERTEX
  8
GSLAYER
 10
5856.4433679671
 20
1112.0473388406
  0
SEQEND
  0
POLYLINE
  8
GSLAYER
 70
128
 66
1
  0
VERTEX
  8
GSLAYER
 10
5855.619609574
 20
1112.0473388406
  0
VERTEX
  8
GSLAYER
 10
5855.619609574
 20
1104.4961225461
  0
VERTEX
  8
GSLAYER
 10
5855.5646923477
 20
1104.4961225461
  0
VERTEX
  8
GSLAYER
 10
5854.6757197485
 20
1104.5905127498
  0
VERTEX
  8
GSLAYER
 10
5853.7936118025
 20
1104.7913064558
  0
VERTEX
  8
GSLAYER
 10
5852.9183685098
 20
1105.0985036641
  0
VERTEX
  8
GSLAYER
 10
5852.0499898703
 20
1105.5121043748
  0
VERTEX
  8
GSLAYER
 10
5851.1438556379
 20
1106.1093369363
  0
VERTEX
  8
GSLAYER
 10
5850.3475558578
 20
1106.8026758869
  0
VERTEX
  8
GSLAYER
 10
5849.6610905302
 20
1107.5921212268
  0
VERTEX
  8
GSLAYER
 10
5849.084459655
 20
1108.4776729559
  0
VERTEX
  8
GSLAYER
 10
5848.6708642951
 20
1109.3357657166
  0
VERTEX
  8
GSLAYER
 10
5848.363671061
 20
1110.2075879616
  0
VERTEX
  8
GSLAYER
 10
5848.1628799527
 20
1111.0931396906
  0
VERTEX
  8
GSLAYER
 10
5848.0684909701
 20
1111.9924209039
  0
VERTEX
  8
GSLAYER
 10
5848.0684909701
 20
1112.0473388406
  0
VERTEX
  8
GSLAYER
 10
5855.619609574
 20
1112.0473388406
  0
SEQEND
  0
POLYLINE
  8
GSLAYER
 70
128
 66
1
  0
VERTEX
  8
GSLAYER
 10
5856.4433679671
 20
1112.8711078909
  0
VERTEX
  8
GSLAYER
 10
5856.4433679671
 20
1120.4223241854
  0
VERTEX
  8
GSLAYER
 10
5856.4982851933
 20
1120.4223241854
  0
VERTEX
  8
GSLAYER
 10
5857.3872577926
 20
1120.3279339817
  0
VERTEX
  8
GSLAYER
 10
5858.2693657386
 20
1120.1271402757
  0
VERTEX
  8
GSLAYER
 10
5859.1446090313
 20
1119.8199430674
  0
VERTEX
  8
GSLAYER
 10
5860.0129876707
 20
1119.4063423567
  0
VERTEX
  8
GSLAYER
 10
5860.9191219032
 20
1118.8091097952
  0
VERTEX
  8
GSLAYER
 10
5861.7154216832
 20
1118.1157708445
  0
VERTEX
  8
GSLAYER
 10
5862.4018870109
 20
1117.3263255047
  0
VERTEX
  8
GSLAYER
 10
5862.9785178861
 20
1116.4407737756
  0
VERTEX
  8
GSLAYER
 10
5863.392113246
 20
1115.5826810148
  0
VERTEX
  8
GSLAYER
 10
5863.6993064801
 20
1114.7108587699
  0
VERTEX
  8
GSLAYER
 10
5863.9000975884
 20
1113.8253070408
  0
VERTEX
  8
GSLAYER
 10
5863.9944865709
 20
1112.9260258276
  0
VERTEX
  8
GSLAYER
 10
5863.9944865709
 20
1112.8711078909
  0
VERTEX
  8
GSLAYER
 10
5856.4433679671
 20
1112.8711078909
  0
SEQEND
  0
POLYLINE
  8
GSLAYER
 70
128
 66
1
  0
VERTEX
  8
GSLAYER
 10
5855.619609574
 20
1112.8711078909
  0
VERTEX
  8
GSLAYER
 10
5848.0684909701
 20
1112.8711078909
  0
VERTEX
  8
GSLAYER
 10
5848.0684909701
 20
1112.9260258276
  0
VERTEX
  8
GSLAYER
 10
5848.1628799527
 20
1113.8150099277
  0
VERTEX
  8
GSLAYER
 10
5848.363671061
 20
1114.6971292858
  0
VERTEX
  8
GSLAYER
 10
5848.6708642951
 20
1115.5723839017
  0
VERTEX
  8
GSLAYER
 10
5849.084459655
 20
1116.4407737756
  0
VERTEX
  8
GSLAYER
 10
5849.68168449
 20
1117.3469197309
  0
VERTEX
  8
GSLAYER
 10
5850.3750144709
 20
1118.1432298129
  0
VERTEX
  8
GSLAYER
 10
5851.1644495977
 20
1118.8297040215
  0
VERTEX
  8
GSLAYER
 10
5852.0499898703
 20
1119.4063423567
  0
VERTEX
  8
GSLAYER
 10
5852.9080715299
 20
1119.8199430674
  0
VERTEX
  8
GSLAYER
 10
5853.7798824959
 20
1120.1271402757
  0
VERTEX
  8
GSLAYER
 10
5854.6654227686
 20
1120.3279339817
  0
VERTEX
  8
GSLAYER
 10
5855.5646923477
 20
1120.4223241854
  0
VERTEX
  8
GSLAYER
 10
5855.619609574
 20
1120.4223241854
  0
VERTEX
  8
GSLAYER
 10
5855.619609574
 20
1112.8711078909
  0
SEQEND
  0
POLYLINE
  8
GSLAYER
 70
128
 66
1
  0
VERTEX
  8
GSLAYER
 10
4948.5992127807
 20
196.22833783198
  0
VERTEX
  8
GSLAYER
 10
4947.5060167465
 20
196.1579742256
  0
VERTEX
  8
GSLAYER
 10
4946.4231176922
 20
195.94688340646
  0
VERTEX
  8
GSLAYER
 10
4945.3505156178
 20
195.59506537455
  0
VERTEX
  8
GSLAYER
 10
4944.2882105233
 20
195.10252012989
  0
VERTEX
  8
GSLAYER
 10
4943.2911196349
 20
194.46753148694
  0
VERTEX
  8
GSLAYER
 10
4942.4141601789
 20
193.71584222853
  0
VERTEX
  8
GSLAYER
 10
4941.6573321552
 20
192.84745235466
  0
VERTEX
  8
GSLAYER
 10
4941.0206355638
 20
191.86236186533
  0
VERTEX
  8
GSLAYER
 10
4940.7486236777
 20
191.336351003
  0
VERTEX
  8
GSLAYER
 10
4940.5092188947
 20
190.80175921306
  0
VERTEX
  8
GSLAYER
 10
4940.3024212148
 20
190.25858649551
  0
VERTEX
  8
GSLAYER
 10
4940.1282306379
 20
189.70683285035
  0
VERTEX
  8
GSLAYER
 10
4939.9900794907
 20
189.14821446311
  0
VERTEX
  8
GSLAYER
 10
4939.8914000998
 20
188.5844475193
  0
VERTEX
  8
GSLAYER
 10
4939.8321924653
 20
188.01553201893
  0
VERTEX
  8
GSLAYER
 10
4939.8124565872
 20
187.441467962
  0
VERTEX
  8
GSLAYER
 10
4939.8862516099
 20
186.34825778481
  0
VERTEX
  8
GSLAYER
 10
4940.107636678
 20
185.26534472076
  0
VERTEX
  8
GSLAYER
 10
4940.4766117916
 20
184.19272876983
  0
VERTEX
  8
GSLAYER
 10
4940.9931769507
 20
183.13040993203
  0
VERTEX
  8
GSLAYER
 10
4941.6504675019
 20
182.12300903093
  0
VERTEX
  8
GSLAYER
 10
4942.4141601789
 20
181.24260585841
  0
VERTEX
  8
GSLAYER
 10
4943.2842549816
 20
180.48920041447
  0
VERTEX
  8
GSLAYER
 10
4944.2607519102
 20
179.86279269914
  0
VERTEX
  8
GSLAYER
 10
4944.7841817225
 20
179.60193249987
  0
VERTEX
  8
GSLAYER
 10
4945.3110438614
 20
179.36853126895
  0
VERTEX
  8
GSLAYER
 10
4945.841338327
 20
179.16258900637
  0
VERTEX
  8
GSLAYER
 10
4946.3750651192
 20
178.98410571214
  0
VERTEX
  8
GSLAYER
 10
4946.9156565647
 20
178.83994612833
  0
VERTEX
  8
GSLAYER
 10
4947.4665449902
 20
178.73697499704
  0
VERTEX
  8
GSLAYER
 10
4948.0277303955
 20
178.67519231827
  0
VERTEX
  8
GSLAYER
 10
4948.5992127807
 20
178.65459809201
  0
VERTEX
  8
GSLAYER
 10
4949.1715532476
 20
178.67519231827
  0
VERTEX
  8
GSLAYER
 10
4949.7353128979
 20
178.73697499704
  0
VERTEX
  8
GSLAYER
 10
4950.2904917317
 20
178.83994612833
  0
VERTEX
  8
GSLAYER
 10
4950.8370897488
 20
178.98410571214
  0
VERTEX
  8
GSLAYER
 10
4951.3768231126
 20
179.16258900637
  0
VERTEX
  8
GSLAYER
 10
4951.9114079865
 20
179.36853126895
  0
VERTEX
  8
GSLAYER
 10
4952.4408443704
 20
179.60193249987
  0
VERTEX
  8
GSLAYER
 10
4952.9651322644
 20
179.86279269914
  0
VERTEX
  8
GSLAYER
 10
4953.9399130296
 20
180.48920041447
  0
VERTEX
  8
GSLAYER
 10
4954.8048593424
 20
181.24260585841
  0
VERTEX
  8
GSLAYER
 10
4955.5599712028
 20
182.12300903093
  0
VERTEX
  8
GSLAYER
 10
4956.2052486108
 20
183.13040993203
  0
VERTEX
  8
GSLAYER
 10
4956.7218137698
 20
184.19272876983
  0
VERTEX
  8
GSLAYER
 10
4957.0907888834
 20
185.26534472076
  0
VERTEX
  8
GSLAYER
 10
4957.3121739516
 20
186.34825778481
  0
VERTEX
  8
GSLAYER
 10
4957.3859689743
 20
187.441467962
  0
VERTEX
  8
GSLAYER
 10
4957.3121739516
 20
188.57243422065
  0
VERTEX
  8
GSLAYER
 10
4957.0907888834
 20
189.68623862409
  0
VERTEX
  8
GSLAYER
 10
4956.7218137698
 20
190.78288117232
  0
VERTEX
  8
GSLAYER
 10
4956.2052486108
 20
191.86236186533
  0
VERTEX
  8
GSLAYER
 10
4955.8903326417
 20
192.37035277969
  0
VERTEX
  8
GSLAYER
 10
4955.5496742229
 20
192.8508847257
  0
VERTEX
  8
GSLAYER
 10
4955.1832733543
 20
193.30395770337
  0
VERTEX
  8
GSLAYER
 10
4954.7911300359
 20
193.7295717127
  0
VERTEX
  8
GSLAYER
 10
4954.3715281044
 20
194.12429438264
  0
VERTEX
  8
GSLAYER
 10
4953.9227513964
 20
194.48469334215
  0
VERTEX
  8
GSLAYER
 10
4953.4447999121
 20
194.81076859124
  0
VERTEX
  8
GSLAYER
 10
4952.9376736513
 20
195.10252012989
  0
VERTEX
  8
GSLAYER
 10
4951.8530584337
 20
195.59506537455
  0
VERTEX
  8
GSLAYER
 10
4950.768443216
 20
195.94688340646
  0
VERTEX
  8
GSLAYER
 10
4949.6838279984
 20
196.1579742256
  0
VERTEX
  8
GSLAYER
 10
4948.5992127807
 20
196.22833783198
  0
SEQEND
  0
POLYLINE
  8
GSLAYER
 70
128
 66
1
  0
VERTEX
  8
GSLAYER
 10
4949.0110919773
 20
187.02958343684
  0
VERTEX
  8
GSLAYER
 10
4956.5622105811
 20
187.02958343684
  0
VERTEX
  8
GSLAYER
 10
4956.5622105811
 20
186.97466550015
  0
VERTEX
  8
GSLAYER
 10
4956.4678215986
 20
186.08568140003
  0
VERTEX
  8
GSLAYER
 10
4956.2670304903
 20
185.20356204198
  0
VERTEX
  8
GSLAYER
 10
4955.9598372562
 20
184.32830742603
  0
VERTEX
  8
GSLAYER
 10
4955.5462418963
 20
183.45991755216
  0
VERTEX
  8
GSLAYER
 10
4954.9490170612
 20
182.55377159682
  0
VERTEX
  8
GSLAYER
 10
4954.2556870803
 20
181.75746151485
  0
VERTEX
  8
GSLAYER
 10
4953.4662519536
 20
181.07098730626
  0
VERTEX
  8
GSLAYER
 10
4952.5807116809
 20
180.49434897104
  0
VERTEX
  8
GSLAYER
 10
4951.7226300214
 20
180.08074826036
  0
VERTEX
  8
GSLAYER
 10
4950.8508190553
 20
179.77355105202
  0
VERTEX
  8
GSLAYER
 10
4949.9652787827
 20
179.572757346
  0
VERTEX
  8
GSLAYER
 10
4949.0660092035
 20
179.47836714232
  0
VERTEX
  8
GSLAYER
 10
4949.0110919773
 20
179.47836714232
  0
VERTEX
  8
GSLAYER
 10
4949.0110919773
 20
187.02958343684
  0
SEQEND
  0
POLYLINE
  8
GSLAYER
 70
128
 66
1
  0
VERTEX
  8
GSLAYER
 10
4948.1873335842
 20
187.02958343684
  0
VERTEX
  8
GSLAYER
 10
4948.1873335842
 20
179.47836714232
  0
VERTEX
  8
GSLAYER
 10
4948.1324163579
 20
179.47836714232
  0
VERTEX
  8
GSLAYER
 10
4947.2434437587
 20
179.572757346
  0
VERTEX
  8
GSLAYER
 10
4946.3613358127
 20
179.77355105202
  0
VERTEX
  8
GSLAYER
 10
4945.48609252
 20
180.08074826036
  0
VERTEX
  8
GSLAYER
 10
4944.6177138805
 20
180.49434897104
  0
VERTEX
  8
GSLAYER
 10
4943.7115796481
 20
181.09158153252
  0
VERTEX
  8
GSLAYER
 10
4942.915279868
 20
181.78492048319
  0
VERTEX
  8
GSLAYER
 10
4942.2288145404
 20
182.57436582308
  0
VERTEX
  8
GSLAYER
 10
4941.6521836652
 20
183.45991755216
  0
VERTEX
  8
GSLAYER
 10
4941.2385883053
 20
184.3180103129
  0
VERTEX
  8
GSLAYER
 10
4940.9313950712
 20
185.18983255781
  0
VERTEX
  8
GSLAYER
 10
4940.7306039629
 20
186.0753842869
  0
VERTEX
  8
GSLAYER
 10
4940.6362149803
 20
186.97466550015
  0
VERTEX
  8
GSLAYER
 10
4940.6362149803
 20
187.02958343684
  0
VERTEX
  8
GSLAYER
 10
4948.1873335842
 20
187.02958343684
  0
SEQEND
  0
POLYLINE
  8
GSLAYER
 70
128
 66
1
  0
VERTEX
  8
GSLAYER
 10
4949.0110919773
 20
187.85335248715
  0
VERTEX
  8
GSLAYER
 10
4949.0110919773
 20
195.40456878167
  0
VERTEX
  8
GSLAYER
 10
4949.0660092035
 20
195.40456878167
  0
VERTEX
  8
GSLAYER
 10
4949.9549818028
 20
195.31017857799
  0
VERTEX
  8
GSLAYER
 10
4950.8370897488
 20
195.10938487197
  0
VERTEX
  8
GSLAYER
 10
4951.7123330415
 20
194.80218766363
  0
VERTEX
  8
GSLAYER
 10
4952.5807116809
 20
194.38858695295
  0
VERTEX
  8
GSLAYER
 10
4953.4868459134
 20
193.79135439148
  0
VERTEX
  8
GSLAYER
 10
4954.2831456934
 20
193.0980154408
  0
VERTEX
  8
GSLAYER
 10
4954.9696110211
 20
192.30857010092
  0
VERTEX
  8
GSLAYER
 10
4955.5462418963
 20
191.42301837183
  0
VERTEX
  8
GSLAYER
 10
4955.9598372562
 20
190.56492561109
  0
VERTEX
  8
GSLAYER
 10
4956.2670304903
 20
189.69310336618
  0
VERTEX
  8
GSLAYER
 10
4956.4678215986
 20
188.80755163709
  0
VERTEX
  8
GSLAYER
 10
4956.5622105811
 20
187.90827042384
  0
VERTEX
  8
GSLAYER
 10
4956.5622105811
 20
187.85335248715
  0
VERTEX
  8
GSLAYER
 10
4949.0110919773
 20
187.85335248715
  0
SEQEND
  0
POLYLINE
  8
GSLAYER
 70
128
 66
1
  0
VERTEX
  8
GSLAYER
 10
4948.1873335842
 20
187.85335248715
  0
VERTEX
  8
GSLAYER
 10
4940.6362149803
 20
187.85335248715
  0
VERTEX
  8
GSLAYER
 10
4940.6362149803
 20
187.90827042384
  0
VERTEX
  8
GSLAYER
 10
4940.7306039629
 20
188.79725452397
  0
VERTEX
  8
GSLAYER
 10
4940.9313950712
 20
189.67937388201
  0
VERTEX
  8
GSLAYER
 10
4941.2385883053
 20
190.55462849796
  0
VERTEX
  8
GSLAYER
 10
4941.6521836652
 20
191.42301837183
  0
VERTEX
  8
GSLAYER
 10
4942.2494085002
 20
192.32916432717
  0
VERTEX
  8
GSLAYER
 10
4942.9427384811
 20
193.12547440914
  0
VERTEX
  8
GSLAYER
 10
4943.7321736079
 20
193.81194861773
  0
VERTEX
  8
GSLAYER
 10
4944.6177138805
 20
194.38858695295
  0
VERTEX
  8
GSLAYER
 10
4945.47579554
 20
194.80218766363
  0
VERTEX
  8
GSLAYER
 10
4946.3476065061
 20
195.10938487197
  0
VERTEX
  8
GSLAYER
 10
4947.2331467788
 20
195.31017857799
  0
VERTEX
  8
GSLAYER
 10
4948.1324163579
 20
195.40456878167
  0
VERTEX
  8
GSLAYER
 10
4948.1873335842
 20
195.40456878167
  0
VERTEX
  8
GSLAYER
 10
4948.1873335842
 20
187.85335248715
  0
SEQEND
  0
POLYLINE
  8
GSLAYER
 70
128
 66
1
  0
VERTEX
  8
GSLAYER
 10
7662.9080805742
 20
5943.6400391532
  0
VERTEX
  8
GSLAYER
 10
7656.5177124334
 20
5902.1021088587
  0
VERTEX
  8
GSLAYER
 10
7710.83584163
 20
5807.8429593443
  0
VERTEX
  8
GSLAYER
 10
7798.7034035656
 20
5668.8506541282
  0
VERTEX
  8
GSLAYER
 10
7800.3009956008
 20
5664.0578160173
  0
VERTEX
  8
GSLAYER
 10
7803.4961796712
 20
5660.8625906101
  0
VERTEX
  8
GSLAYER
 10
7806.6913637416
 20
5654.4721397955
  0
VERTEX
  8
GSLAYER
 10
7811.4841398471
 20
5648.081688981
  0
VERTEX
  8
GSLAYER
 10
7870.5950451493
 20
5491.5156440249
  0
VERTEX
  8
GSLAYER
 10
7873.7902292197
 20
5485.1251932104
  0
VERTEX
  8
GSLAYER
 10
7891.3637416068
 20
5365.3042404379
  0
VERTEX
  8
GSLAYER
 10
7892.961333642
 20
5360.511402327
  0
VERTEX
  8
GSLAYER
 10
7892.961333642
 20
5349.3281134016
  0
VERTEX
  8
GSLAYER
 10
7892.961333642
 20
5341.3400498834
  0
VERTEX
  8
GSLAYER
 10
7894.5589256772
 20
5330.156760958
  0
VERTEX
  8
GSLAYER
 10
7886.5709655012
 20
5203.9453573709
  0
VERTEX
  8
GSLAYER
 10
7886.5709655012
 20
5194.3596811491
  0
VERTEX
  8
GSLAYER
 10
7886.5709655012
 20
5189.5668430382
  0
VERTEX
  8
GSLAYER
 10
7886.5709655012
 20
5184.7740049273
  0
VERTEX
  8
GSLAYER
 10
7888.1685575364
 20
5173.5907160019
  0
VERTEX
  8
GSLAYER
 10
7888.1685575364
 20
5159.2122016692
  0
VERTEX
  8
GSLAYER
 10
7888.1685575364
 20
5154.4193635583
  0
VERTEX
  8
GSLAYER
 10
7865.8022690437
 20
4972.2915153441
  0
VERTEX
  8
GSLAYER
 10
7865.8022690437
 20
4957.9130010114
  0
VERTEX
  8
GSLAYER
 10
7864.2046770085
 20
4945.1320993823
  0
VERTEX
  8
GSLAYER
 10
7864.2046770085
 20
4933.9488104569
  0
VERTEX
  8
GSLAYER
 10
7862.6070849733
 20
4922.7655215314
  0
VERTEX
  8
GSLAYER
 10
7862.6070849733
 20
4913.1798453096
  0
VERTEX
  8
GSLAYER
 10
7849.8263486918
 20
4790.1636671299
  0
VERTEX
  8
GSLAYER
 10
7849.8263486918
 20
4778.9803782044
  0
VERTEX
  8
GSLAYER
 10
7849.8263486918
 20
4774.1875400935
  0
VERTEX
  8
GSLAYER
 10
7849.8263486918
 20
4769.3947019826
  0
VERTEX
  8
GSLAYER
 10
7849.8263486918
 20
4758.2114130572
  0
VERTEX
  8
GSLAYER
 10
7849.8263486918
 20
4751.8209622427
  0
VERTEX
  8
GSLAYER
 10
7849.8263486918
 20
4742.2352860209
  0
VERTEX
  8
GSLAYER
 10
7843.435980551
 20
4592.0596918793
  0
VERTEX
  8
GSLAYER
 10
7843.435980551
 20
4587.2668537684
  0
VERTEX
  8
GSLAYER
 10
7843.435980551
 20
4582.4740156575
  0
VERTEX
  8
GSLAYER
 10
7841.8383885158
 20
4572.8883394357
  0
VERTEX
  8
GSLAYER
 10
7841.8383885158
 20
4564.9002759176
  0
VERTEX
  8
GSLAYER
 10
7821.0696920583
 20
4472.2387391068
  0
VERTEX
  8
GSLAYER
 10
7817.8745079879
 20
4467.4459009959
  0
VERTEX
  8
GSLAYER
 10
7816.2769159527
 20
4456.2626120705
  0
VERTEX
  8
GSLAYER
 10
7814.6793239175
 20
4451.4697739596
  0
VERTEX
  8
GSLAYER
 10
7809.886547812
 20
4437.0912596269
  0
VERTEX
  8
GSLAYER
 10
7809.886547812
 20
4432.298421516
  0
VERTEX
  8
GSLAYER
 10
7808.2889557768
 20
4427.5055834051
  0
VERTEX
  8
GSLAYER
 10
7808.2889557768
 20
4422.7127452942
  0
VERTEX
  8
GSLAYER
 10
7806.6913637416
 20
4417.9199071833
  0
VERTEX
  8
GSLAYER
 10
7779.5322991433
 20
4365.1986879634
  0
VERTEX
  8
GSLAYER
 10
7776.3371150729
 20
4360.4058498525
  0
VERTEX
  8
GSLAYER
 10
7774.7395230377
 20
4355.6130117416
  0
VERTEX
  8
GSLAYER
 10
7771.5443389673
 20
4350.8201736307
  0
VERTEX
  8
GSLAYER
 10
7632.5538319055
 20
4230.9992208582
  0
VERTEX
  8
GSLAYER
 10
7618.1755035888
 20
4215.0230938218
  0
VERTEX
  8
GSLAYER
 10
7614.9803195184
 20
4211.8278684146
  0
VERTEX
  8
GSLAYER
 10
7610.1875434128
 20
4207.0350303037
  0
VERTEX
  8
GSLAYER
 10
7602.1995832368
 20
4197.4493540819
  0
VERTEX
  8
GSLAYER
 10
7597.4068071312
 20
4192.656515971
  0
VERTEX
  8
GSLAYER
 10
7594.2116230609
 20
4187.8636778601
  0
VERTEX
  8
GSLAYER
 10
7477.5874044917
 20
4069.6403377912
  0
VERTEX
  8
GSLAYER
 10
7471.197036351
 20
4060.0546615694
  0
VERTEX
  8
GSLAYER
 10
7469.5994443158
 20
4055.2618234585
  0
VERTEX
  8
GSLAYER
 10
7468.0018522806
 20
4050.4689853476
  0
VERTEX
  8
GSLAYER
 10
7463.209076175
 20
4040.8833091258
  0
VERTEX
  8
GSLAYER
 10
7397.7078027321
 20
3924.2575817606
  0
VERTEX
  8
GSLAYER
 10
7394.5126186617
 20
3913.0742928351
  0
VERTEX
  8
GSLAYER
 10
7391.3174345913
 20
3903.4886166133
  0
VERTEX
  8
GSLAYER
 10
7389.7198425561
 20
3898.6957785024
  0
VERTEX
  8
GSLAYER
 10
7388.1222505209
 20
3887.512489577
  0
VERTEX
  8
GSLAYER
 10
7386.5246584857
 20
3882.7196514661
  0
VERTEX
  8
GSLAYER
 10
7384.9270664505
 20
3877.9268133552
  0
VERTEX
  8
GSLAYER
 10
7383.3294744153
 20
3866.7435244297
  0
VERTEX
  8
GSLAYER
 10
7346.5848576059
 20
3754.9106351754
  0
VERTEX
  8
GSLAYER
 10
7343.3896735355
 20
3745.3249589536
  0
VERTEX
  8
GSLAYER
 10
7341.7920815003
 20
3740.5321208427
  0
VERTEX
  8
GSLAYER
 10
7338.5968974299
 20
3729.3488319173
  0
VERTEX
  8
GSLAYER
 10
7338.5968974299
 20
3724.5559938064
  0
VERTEX
  8
GSLAYER
 10
7336.9993053947
 20
3719.7631556955
  0
VERTEX
  8
GSLAYER
 10
7336.9993053947
 20
3714.9703175846
  0
VERTEX
  8
GSLAYER
 10
7336.9993053947
 20
3705.3846413628
  0
VERTEX
  8
GSLAYER
 10
7336.9993053947
 20
3697.3965778446
  0
VERTEX
  8
GSLAYER
 10
7332.2065292892
 20
3480.1212501505
  0
VERTEX
  8
GSLAYER
 10
7333.8041213243
 20
3468.937961225
  0
VERTEX
  8
GSLAYER
 10
7333.8041213243
 20
3459.3522850032
  0
VERTEX
  8
GSLAYER
 10
7333.8041213243
 20
3454.5594468923
  0
VERTEX
  8
GSLAYER
 10
7335.4017133595
 20
3446.5713833742
  0
VERTEX
  8
GSLAYER
 10
7336.9993053947
 20
3441.7785452633
  0
VERTEX
  8
GSLAYER
 10
7336.9993053947
 20
3436.9857071524
  0
VERTEX
  8
GSLAYER
 10
7336.9993053947
 20
3432.1928690415
  0
VERTEX
  8
GSLAYER
 10
7322.620977078
 20
3310.7743035653
  0
VERTEX
  8
GSLAYER
 10
7322.620977078
 20
3305.9814654544
  0
VERTEX
  8
GSLAYER
 10
7322.620977078
 20
3301.1886273435
  0
VERTEX
  8
GSLAYER
 10
7340.1944894651
 20
3173.3796110528
  0
VERTEX
  8
GSLAYER
 10
7340.1944894651
 20
3165.3915475347
  0
VERTEX
  8
GSLAYER
 10
7340.1944894651
 20
3160.5987094238
  0
VERTEX
  8
GSLAYER
 10
7341.7920815003
 20
3154.2082586092
  0
VERTEX
  8
GSLAYER
 10
7341.7920815003
 20
3149.4154204983
  0
VERTEX
  8
GSLAYER
 10
7344.9872655707
 20
3139.8297442765
  0
VERTEX
  8
GSLAYER
 10
7367.3535540634
 20
2968.8851849878
  0
VERTEX
  8
GSLAYER
 10
7368.9511460986
 20
2959.299508766
  0
VERTEX
  8
GSLAYER
 10
7372.146330169
 20
2952.9090579514
  0
VERTEX
  8
GSLAYER
 10
7375.3415142394
 20
2948.1162198405
  0
VERTEX
  8
GSLAYER
 10
7450.4283398935
 20
2745.2194064791
  0
VERTEX
  8
GSLAYER
 10
7455.221115999
 20
2735.6337302573
  0
VERTEX
  8
GSLAYER
 10
7456.8187080342
 20
2730.8408921464
  0
VERTEX
  8
GSLAYER
 10
7460.0138921046
 20
2726.0480540355
  0
VERTEX
  8
GSLAYER
 10
7461.6114841398
 20
2719.657603221
  0
VERTEX
  8
GSLAYER
 10
7468.0018522806
 20
2706.8767015919
  0
VERTEX
  8
GSLAYER
 10
7472.7946283862
 20
2698.8886380737
  0
VERTEX
  8
GSLAYER
 10
7477.5874044917
 20
2687.7053491483
  0
VERTEX
  8
GSLAYER
 10
7549.4790460754
 20
2484.8085357868
  0
VERTEX
  8
GSLAYER
 10
7552.6742301458
 20
2475.222859565
  0
VERTEX
  8
GSLAYER
 10
7552.6742301458
 20
2470.4300214541
  0
VERTEX
  8
GSLAYER
 10
7555.8694142162
 20
2460.8443452323
  0
VERTEX
  8
GSLAYER
 10
7557.4670062514
 20
2456.0515071214
  0
VERTEX
  8
GSLAYER
 10
7560.6621903218
 20
2448.0634436033
  0
VERTEX
  8
GSLAYER
 10
7563.8573743922
 20
2440.0753800851
  0
VERTEX
  8
GSLAYER
 10
7568.6501504978
 20
2428.8920911597
  0
VERTEX
  8
GSLAYER
 10
7570.247742533
 20
2424.0992530488
  0
VERTEX
  8
GSLAYER
 10
7573.4429266033
 20
2412.9159641233
  0
VERTEX
  8
GSLAYER
 10
7591.0164389905
 20
2312.2663637944
  0
VERTEX
  8
GSLAYER
 10
7592.6140310257
 20
2307.4735256835
  0
VERTEX
  8
GSLAYER
 10
7594.2116230609
 20
2302.6806875726
  0
VERTEX
  8
GSLAYER
 10
7680.4815929613
 20
2088.6005852858
  0
VERTEX
  8
GSLAYER
 10
7682.0791849965
 20
2083.8077471749
  0
VERTEX
  8
GSLAYER
 10
7685.2743690669
 20
2079.014909064
  0
VERTEX
  8
GSLAYER
 10
7686.8719611021
 20
2072.6244582494
  0
VERTEX
  8
GSLAYER
 10
7688.4695531373
 20
2067.8316201385
  0
VERTEX
  8
GSLAYER
 10
7688.4695531373
 20
1938.4249911442
  0
VERTEX
  8
GSLAYER
 10
7688.4695531373
 20
1930.4369276261
  0
VERTEX
  8
GSLAYER
 10
7688.4695531373
 20
1924.0464768115
  0
VERTEX
  8
GSLAYER
 10
7688.4695531373
 20
1917.656025997
  0
VERTEX
  8
GSLAYER
 10
7688.4695531373
 20
1909.6679624788
  0
VERTEX
  8
GSLAYER
 10
7685.2743690669
 20
1770.6756572627
  0
VERTEX
  8
GSLAYER
 10
7685.2743690669
 20
1764.2852064482
  0
VERTEX
  8
GSLAYER
 10
7685.2743690669
 20
1759.4923683373
  0
VERTEX
  8
GSLAYER
 10
7763.5563787913
 20
1596.5358725667
  0
VERTEX
  8
GSLAYER
 10
7766.7515628617
 20
1585.3525836412
  0
VERTEX
  8
GSLAYER
 10
7768.3491548969
 20
1580.5597455303
  0
VERTEX
  8
GSLAYER
 10
7771.5443389673
 20
1572.5716820122
  0
VERTEX
  8
GSLAYER
 10
7774.7395230377
 20
1564.583618494
  0
VERTEX
  8
GSLAYER
 10
7776.3371150729
 20
1558.1931676795
  0
VERTEX
  8
GSLAYER
 10
7781.1298911785
 20
1548.6074914577
  0
VERTEX
  8
GSLAYER
 10
7813.0817318823
 20
1422.3960878706
  0
VERTEX
  8
GSLAYER
 10
7814.6793239175
 20
1411.2127989452
  0
VERTEX
  8
GSLAYER
 10
7814.6793239175
 20
1406.4199608343
  0
VERTEX
  8
GSLAYER
 10
7816.2769159527
 20
1398.4318973161
  0
VERTEX
  8
GSLAYER
 10
7816.2769159527
 20
1393.6390592052
  0
VERTEX
  8
GSLAYER
 10
7817.8745079879
 20
1382.4557702798
  0
VERTEX
  8
GSLAYER
 10
7821.0696920583
 20
1369.6748686507
  0
VERTEX
  8
GSLAYER
 10
7832.2528363047
 20
1206.7183728801
  0
VERTEX
  8
GSLAYER
 10
7833.8504283399
 20
1198.7303093619
  0
VERTEX
  8
GSLAYER
 10
7833.8504283399
 20
1190.7422458438
  0
VERTEX
  8
GSLAYER
 10
7835.448020375
 20
1184.3517950292
  0
VERTEX
  8
GSLAYER
 10
7837.0456124102
 20
1176.3637315111
  0
VERTEX
  8
GSLAYER
 10
7837.0456124102
 20
1171.5708934002
  0
VERTEX
  8
GSLAYER
 10
7843.435980551
 20
1046.9571025168
  0
VERTEX
  8
GSLAYER
 10
7841.8383885158
 20
1037.371426295
  0
VERTEX
  8
GSLAYER
 10
7841.8383885158
 20
1029.3833627768
  0
VERTEX
  8
GSLAYER
 10
7841.8383885158
 20
1024.5905246659
  0
VERTEX
  8
GSLAYER
 10
7843.435980551
 20
899.9767337825
  0
VERTEX
  8
GSLAYER
 10
7843.435980551
 20
891.98867026433
  0
VERTEX
  8
GSLAYER
 10
7843.435980551
 20
885.5982194498
  0
VERTEX
  8
GSLAYER
 10
7843.435980551
 20
880.8053813389
  0
VERTEX
  8
GSLAYER
 10
7851.423940727
 20
804.11997156449
  0
SEQEND
  0
POLYLINE
  8
GSLAYER
 70
128
 66
1
  0
VERTEX
  8
GSLAYER
 10
1948.3213706877
 20
1190.7422458438
  0
VERTEX
  8
GSLAYER
 10
2020.2130122714
 20
1269.0252683218
  0
VERTEX
  8
GSLAYER
 10
2018.6154202362
 20
1358.4915797253
  0
VERTEX
  8
GSLAYER
 10
2017.017828201
 20
1363.2844178362
  0
VERTEX
  8
GSLAYER
 10
2013.8226441306
 20
1366.4796432435
  0
VERTEX
  8
GSLAYER
 10
2010.6274600602
 20
1372.870094058
  0
VERTEX
  8
GSLAYER
 10
1980.2732113916
 20
1473.5196943869
  0
VERTEX
  8
GSLAYER
 10
1978.6756193564
 20
1478.3125324978
  0
VERTEX
  8
GSLAYER
 10
1975.480435286
 20
1481.5077579051
  0
VERTEX
  8
GSLAYER
 10
1980.2732113916
 20
1562.9860057904
  0
VERTEX
  8
GSLAYER
 10
1981.8708034267
 20
1569.3764566049
  0
VERTEX
  8
GSLAYER
 10
1981.8708034267
 20
1574.1692947158
  0
VERTEX
  8
GSLAYER
 10
1983.4683954619
 20
1578.9621328267
  0
VERTEX
  8
GSLAYER
 10
2034.5913405881
 20
1642.866640972
  0
VERTEX
  8
GSLAYER
 10
2037.7865246585
 20
1646.0618663793
  0
VERTEX
  8
GSLAYER
 10
2042.5793007641
 20
1652.4523171938
  0
VERTEX
  8
GSLAYER
 10
2045.7744848345
 20
1655.6475426011
  0
VERTEX
  8
GSLAYER
 10
2048.9696689049
 20
1660.440380712
  0
VERTEX
  8
GSLAYER
 10
2063.3479972216
 20
1679.6117331556
  0
VERTEX
  8
GSLAYER
 10
2071.3359573976
 20
1690.795022081
  0
VERTEX
  8
GSLAYER
 10
2079.3239175735
 20
1700.3806983028
  0
VERTEX
  8
GSLAYER
 10
2165.593887474
 20
1783.4565588918
  0
VERTEX
  8
GSLAYER
 10
2170.3866635796
 20
1789.8470097063
  0
VERTEX
  8
GSLAYER
 10
2173.5818476499
 20
1793.0422351136
  0
VERTEX
  8
GSLAYER
 10
2178.3746237555
 20
1797.8350732245
  0
VERTEX
  8
GSLAYER
 10
2187.9601759667
 20
1809.0183621499
  0
VERTEX
  8
GSLAYER
 10
2250.2662653392
 20
1882.508546517
  0
VERTEX
  8
GSLAYER
 10
2259.8518175504
 20
1892.0942227388
  0
VERTEX
  8
GSLAYER
 10
2271.0349617967
 20
1901.6798989606
  0
VERTEX
  8
GSLAYER
 10
2282.2181060431
 20
1909.6679624788
  0
VERTEX
  8
GSLAYER
 10
2331.7434591341
 20
1954.4011181806
  0
VERTEX
  8
GSLAYER
 10
2334.9386432045
 20
1959.1939562915
  0
VERTEX
  8
GSLAYER
 10
2336.5362352397
 20
1963.9867944024
  0
VERTEX
  8
GSLAYER
 10
2344.5241954156
 20
1973.5724706242
  0
VERTEX
  8
GSLAYER
 10
2354.1097476268
 20
1983.158146846
  0
VERTEX
  8
GSLAYER
 10
2363.6952998379
 20
1994.3414357714
  0
VERTEX
  8
GSLAYER
 10
2443.5749015976
 20
2064.6363947313
  0
VERTEX
  8
GSLAYER
 10
2446.770085668
 20
2067.8316201385
  0
VERTEX
  8
GSLAYER
 10
2451.5628617736
 20
2069.4292328422
  0
VERTEX
  8
GSLAYER
 10
2512.2713591109
 20
2077.4172963603
  0
VERTEX
  8
GSLAYER
 10
2517.0641352165
 20
2077.4172963603
  0
VERTEX
  8
GSLAYER
 10
2577.7726325539
 20
2034.2817533622
  0
VERTEX
  8
GSLAYER
 10
2580.9678166242
 20
2031.086527955
  0
VERTEX
  8
GSLAYER
 10
2619.3100254689
 20
1959.1939562915
  0
VERTEX
  8
GSLAYER
 10
2620.9076175041
 20
1952.8035054769
  0
VERTEX
  8
GSLAYER
 10
2625.7003936097
 20
1946.4130546624
  0
VERTEX
  8
GSLAYER
 10
2627.2979856448
 20
1941.6202165515
  0
VERTEX
  8
GSLAYER
 10
2668.8353785599
 20
1874.5204829989
  0
VERTEX
  8
GSLAYER
 10
2672.0305626303
 20
1871.3252575916
  0
VERTEX
  8
GSLAYER
 10
2726.3486918268
 20
1852.153905148
  0
VERTEX
  8
GSLAYER
 10
2732.7390599676
 20
1853.7515178516
  0
VERTEX
  8
GSLAYER
 10
2737.5318360732
 20
1855.3491305553
  0
VERTEX
  8
GSLAYER
 10
2775.8740449178
 20
1908.0703497752
  0
VERTEX
  8
GSLAYER
 10
2777.471636953
 20
1914.4608005897
  0
VERTEX
  8
GSLAYER
 10
2777.471636953
 20
1920.8512514043
  0
VERTEX
  8
GSLAYER
 10
2779.0692289882
 20
1925.6440895152
  0
VERTEX
  8
GSLAYER
 10
2780.6668210234
 20
1930.4369276261
  0
VERTEX
  8
GSLAYER
 10
2783.8620050938
 20
1940.0226038479
  0
VERTEX
  8
GSLAYER
 10
2785.459597129
 20
1944.8154419588
  0
VERTEX
  8
GSLAYER
 10
2783.8620050938
 20
2000.7318865859
  0
VERTEX
  8
GSLAYER
 10
2782.2644130586
 20
2007.1223374005
  0
VERTEX
  8
GSLAYER
 10
2782.2644130586
 20
2015.1104009186
  0
VERTEX
  8
GSLAYER
 10
2782.2644130586
 20
2026.2936898441
  0
VERTEX
  8
GSLAYER
 10
2782.2644130586
 20
2031.086527955
  0
VERTEX
  8
GSLAYER
 10
2783.8620050938
 20
2042.2698168804
  0
VERTEX
  8
GSLAYER
 10
2785.459597129
 20
2047.0626549913
  0
VERTEX
  8
GSLAYER
 10
2798.2403334105
 20
2146.1146426166
  0
VERTEX
  8
GSLAYER
 10
2799.8379254457
 20
2150.9074807275
  0
VERTEX
  8
GSLAYER
 10
2803.0331095161
 20
2162.0907696529
  0
VERTEX
  8
GSLAYER
 10
2806.2282935865
 20
2173.2740585783
  0
VERTEX
  8
GSLAYER
 10
2809.4234776569
 20
2184.4573475038
  0
VERTEX
  8
GSLAYER
 10
2834.98495022
 20
2288.3021732399
  0
VERTEX
  8
GSLAYER
 10
2838.1801342904
 20
2299.4854621654
  0
VERTEX
  8
GSLAYER
 10
2841.3753183607
 20
2304.2783002763
  0
VERTEX
  8
GSLAYER
 10
2846.1680944663
 20
2315.4615892017
  0
VERTEX
  8
GSLAYER
 10
2849.3632785367
 20
2325.0472654235
  0
VERTEX
  8
GSLAYER
 10
2878.1199351702
 20
2424.0992530488
  0
VERTEX
  8
GSLAYER
 10
2879.7175272054
 20
2433.6849292706
  0
VERTEX
  8
GSLAYER
 10
2881.3151192406
 20
2438.4777673815
  0
VERTEX
  8
GSLAYER
 10
2884.510303311
 20
2448.0634436033
  0
VERTEX
  8
GSLAYER
 10
2886.1078953462
 20
2452.8562817142
  0
VERTEX
  8
GSLAYER
 10
2897.2910395925
 20
2475.222859565
  0
VERTEX
  8
GSLAYER
 10
2908.4741838389
 20
2491.1989866014
  0
VERTEX
  8
GSLAYER
 10
2962.7923130354
 20
2588.653361523
  0
VERTEX
  8
GSLAYER
 10
2965.9874971058
 20
2593.4461996339
  0
VERTEX
  8
GSLAYER
 10
2969.1826811762
 20
2596.6414250412
  0
VERTEX
  8
GSLAYER
 10
2972.3778652466
 20
2599.8366504485
  0
VERTEX
  8
GSLAYER
 10
2977.1706413522
 20
2604.6294885594
  0
VERTEX
  8
GSLAYER
 10
2986.7561935633
 20
2615.8127774848
  0
VERTEX
  8
GSLAYER
 10
2991.5489696689
 20
2620.6056155957
  0
VERTEX
  8
GSLAYER
 10
3001.1345218801
 20
2631.7889045211
  0
VERTEX
  8
GSLAYER
 10
3004.3297059505
 20
2634.9841299284
  0
VERTEX
  8
GSLAYER
 10
3009.122482056
 20
2639.7769680393
  0
VERTEX
  8
GSLAYER
 10
3060.2454271822
 20
2673.3268348156
  0
VERTEX
  8
GSLAYER
 10
3068.2333873582
 20
2678.1196729265
  0
VERTEX
  8
GSLAYER
 10
3082.6117156749
 20
2687.7053491483
  0
VERTEX
  8
GSLAYER
 10
3085.8068997453
 20
2690.9005745556
  0
VERTEX
  8
GSLAYER
 10
3090.5996758509
 20
2694.0957999628
  0
VERTEX
  8
GSLAYER
 10
3095.3924519565
 20
2697.2910253701
  0
VERTEX
  8
GSLAYER
 10
3108.173188238
 20
2756.4026954045
  0
VERTEX
  8
GSLAYER
 10
3108.173188238
 20
2764.3907589227
  0
VERTEX
  8
GSLAYER
 10
3106.5755962028
 20
2775.5740478481
  0
VERTEX
  8
GSLAYER
 10
3103.3804121325
 20
2783.5621113663
  0
VERTEX
  8
GSLAYER
 10
3101.7828200973
 20
2788.3549494772
  0
VERTEX
  8
GSLAYER
 10
3057.0502431118
 20
2829.8928797717
  0
VERTEX
  8
GSLAYER
 10
3052.2574670063
 20
2833.0881051789
  0
VERTEX
  8
GSLAYER
 10
3047.4646909007
 20
2836.2833305862
  0
VERTEX
  8
GSLAYER
 10
3044.2695068303
 20
2841.0761686971
  0
VERTEX
  8
GSLAYER
 10
3041.0743227599
 20
2844.2713941044
  0
VERTEX
  8
GSLAYER
 10
3031.4887705488
 20
2865.0403592516
  0
VERTEX
  8
GSLAYER
 10
3029.8911785136
 20
2876.223648177
  0
VERTEX
  8
GSLAYER
 10
3028.2935864784
 20
2881.0164862879
  0
VERTEX
  8
GSLAYER
 10
3028.2935864784
 20
2892.1997752134
  0
VERTEX
  8
GSLAYER
 10
3026.6959944432
 20
2956.1042833587
  0
VERTEX
  8
GSLAYER
 10
3028.2935864784
 20
2960.8971214696
  0
VERTEX
  8
GSLAYER
 10
3036.2815466543
 20
2970.4827976914
  0
VERTEX
  8
GSLAYER
 10
3039.4767307247
 20
2975.2756358023
  0
VERTEX
  8
GSLAYER
 10
3130.5394767307
 20
3026.3992423186
  0
VERTEX
  8
GSLAYER
 10
3138.5274369067
 20
3029.5944677258
  0
VERTEX
  8
GSLAYER
 10
3149.7105811531
 20
3034.3873058367
  0
VERTEX
  8
GSLAYER
 10
3160.8937253994
 20
3035.9849185404
  0
VERTEX
  8
GSLAYER
 10
3298.286640426
 20
2989.654150135
  0
VERTEX
  8
GSLAYER
 10
3304.6770085668
 20
2988.0565374314
  0
VERTEX
  8
GSLAYER
 10
3311.0673767076
 20
2984.8613120241
  0
VERTEX
  8
GSLAYER
 10
3315.8601528132
 20
2983.2636993205
  0
VERTEX
  8
GSLAYER
 10
3327.0432970595
 20
2978.4708612096
  0
VERTEX
  8
GSLAYER
 10
3331.8360731651
 20
2976.8732485059
  0
VERTEX
  8
GSLAYER
 10
3343.0192174114
 20
2972.080410395
  0
VERTEX
  8
GSLAYER
 10
3418.1060430655
 20
2938.5305436187
  0
VERTEX
  8
GSLAYER
 10
3422.8988191711
 20
2936.9329309151
  0
VERTEX
  8
GSLAYER
 10
3442.0699235934
 20
2928.9448673969
  0
VERTEX
  8
GSLAYER
 10
3446.862699699
 20
2927.3472546933
  0
VERTEX
  8
GSLAYER
 10
3458.0458439454
 20
2925.7496419897
  0
VERTEX
  8
GSLAYER
 10
3462.8386200509
 20
2924.152029286
  0
VERTEX
  8
GSLAYER
 10
3475.6193563325
 20
2922.5544165824
  0
VERTEX
  8
GSLAYER
 10
3590.6459828664
 20
2919.3591911751
  0
VERTEX
  8
GSLAYER
 10
3601.8291271128
 20
2919.3591911751
  0
VERTEX
  8
GSLAYER
 10
3611.4146793239
 20
2917.7615784715
  0
VERTEX
  8
GSLAYER
 10
3624.1954156055
 20
2917.7615784715
  0
VERTEX
  8
GSLAYER
 10
3635.3785598518
 20
2917.7615784715
  0
VERTEX
  8
GSLAYER
 10
3646.5617040982
 20
2917.7615784715
  0
VERTEX
  8
GSLAYER
 10
3752.0027784209
 20
2908.1759022497
  0
VERTEX
  8
GSLAYER
 10
3756.7955545265
 20
2906.5782895461
  0
VERTEX
  8
GSLAYER
 10
3764.7835147025
 20
2904.9806768424
  0
VERTEX
  8
GSLAYER
 10
3771.1738828433
 20
2904.9806768424
  0
VERTEX
  8
GSLAYER
 10
3779.1618430192
 20
2904.9806768424
  0
VERTEX
  8
GSLAYER
 10
3844.6631164621
 20
2912.9687403606
  0
VERTEX
  8
GSLAYER
 10
3851.0534846029
 20
2914.5663530642
  0
VERTEX
  8
GSLAYER
 10
3857.4438527437
 20
2916.1639657679
  0
VERTEX
  8
GSLAYER
 10
3862.2366288493
 20
2916.1639657679
  0
VERTEX
  8
GSLAYER
 10
3868.62699699
 20
2919.3591911751
  0
VERTEX
  8
GSLAYER
 10
3873.4197730956
 20
2919.3591911751
  0
VERTEX
  8
GSLAYER
 10
3972.4704792776
 20
2978.4708612096
  0
VERTEX
  8
GSLAYER
 10
3982.0560314888
 20
2984.8613120241
  0
VERTEX
  8
GSLAYER
 10
3986.8488075944
 20
2988.0565374314
  0
VERTEX
  8
GSLAYER
 10
3994.8367677703
 20
2992.8493755423
  0
VERTEX
  8
GSLAYER
 10
4001.2271359111
 20
2997.6422136532
  0
VERTEX
  8
GSLAYER
 10
4004.4223199815
 20
3000.8374390604
  0
VERTEX
  8
GSLAYER
 10
4007.6175040519
 20
3004.0326644677
  0
VERTEX
  8
GSLAYER
 10
4012.4102801574
 20
3008.8255025786
  0
VERTEX
  8
GSLAYER
 10
4029.9837925446
 20
3031.1920804295
  0
VERTEX
  8
GSLAYER
 10
4029.9837925446
 20
3035.9849185404
  0
VERTEX
  8
GSLAYER
 10
4033.178976615
 20
3042.3753693549
  0
VERTEX
  8
GSLAYER
 10
4036.3741606853
 20
3045.5705947622
  0
VERTEX
  8
GSLAYER
 10
4039.5693447557
 20
3050.3634328731
  0
VERTEX
  8
GSLAYER
 10
4049.1548969669
 20
3059.9491090949
  0
VERTEX
  8
GSLAYER
 10
4052.3500810373
 20
3064.7419472058
  0
VERTEX
  8
GSLAYER
 10
4055.5452651077
 20
3067.937172613
  0
VERTEX
  8
GSLAYER
 10
4085.8995137763
 20
3107.8774902039
  0
VERTEX
  8
GSLAYER
 10
4085.8995137763
 20
3112.6703283148
  0
VERTEX
  8
GSLAYER
 10
4085.8995137763
 20
3117.4631664257
  0
VERTEX
  8
GSLAYER
 10
4089.0946978467
 20
3125.4512299438
  0
VERTEX
  8
GSLAYER
 10
4093.8874739523
 20
3136.6345188693
  0
VERTEX
  8
GSLAYER
 10
4100.2778420931
 20
3146.2201950911
  0
VERTEX
  8
GSLAYER
 10
4106.6682102339
 20
3157.4034840165
  0
VERTEX
  8
GSLAYER
 10
4137.0224589025
 20
3227.6984429764
  0
VERTEX
  8
GSLAYER
 10
4137.0224589025
 20
3235.6865064946
  0
VERTEX
  8
GSLAYER
 10
4140.2176429729
 20
3245.2721827164
  0
VERTEX
  8
GSLAYER
 10
4143.4128270433
 20
3254.8578589382
  0
VERTEX
  8
GSLAYER
 10
4149.8031951841
 20
3269.2363732709
  0
VERTEX
  8
GSLAYER
 10
4152.9983792545
 20
3274.0292113818
  0
VERTEX
  8
GSLAYER
 10
4176.9622597824
 20
3347.5193957489
  0
VERTEX
  8
GSLAYER
 10
4181.7550358879
 20
3361.8979100816
  0
VERTEX
  8
GSLAYER
 10
4183.3526279231
 20
3366.6907481925
  0
VERTEX
  8
GSLAYER
 10
4188.1454040287
 20
3377.8740371179
  0
VERTEX
  8
GSLAYER
 10
4192.9381801343
 20
3390.654938747
  0
VERTEX
  8
GSLAYER
 10
4205.7189164158
 20
3491.3045390759
  0
VERTEX
  8
GSLAYER
 10
4205.7189164158
 20
3496.0973771868
  0
VERTEX
  8
GSLAYER
 10
4205.7189164158
 20
3504.085440705
  0
VERTEX
  8
GSLAYER
 10
4205.7189164158
 20
3512.0735042231
  0
VERTEX
  8
GSLAYER
 10
4205.7189164158
 20
3516.866342334
  0
VERTEX
  8
GSLAYER
 10
4205.7189164158
 20
3521.6591804449
  0
VERTEX
  8
GSLAYER
 10
4205.7189164158
 20
3531.2448566667
  0
VERTEX
  8
GSLAYER
 10
4207.316508451
 20
3536.0376947776
  0
VERTEX
  8
GSLAYER
 10
4208.9141004862
 20
3540.8305328885
  0
VERTEX
  8
GSLAYER
 10
4210.5116925214
 20
3552.013821814
  0
VERTEX
  8
GSLAYER
 10
4213.7068765918
 20
3673.4323872901
  0
VERTEX
  8
GSLAYER
 10
4213.7068765918
 20
3678.225225401
  0
VERTEX
  8
GSLAYER
 10
4212.1092845566
 20
3683.0180635119
  0
VERTEX
  8
GSLAYER
 10
4212.1092845566
 20
3694.2013524373
  0
VERTEX
  8
GSLAYER
 10
4212.1092845566
 20
3702.1894159555
  0
VERTEX
  8
GSLAYER
 10
4212.1092845566
 20
3713.3727048809
  0
VERTEX
  8
GSLAYER
 10
4189.7429960639
 20
3798.0461781735
  0
VERTEX
  8
GSLAYER
 10
4186.5478119935
 20
3807.6318543953
  0
VERTEX
  8
GSLAYER
 10
4184.9502199583
 20
3812.4246925062
  0
VERTEX
  8
GSLAYER
 10
4184.9502199583
 20
3825.2055941353
  0
VERTEX
  8
GSLAYER
 10
4183.3526279231
 20
3834.7912703571
  0
VERTEX
  8
GSLAYER
 10
4183.3526279231
 20
3845.9745592825
  0
VERTEX
  8
GSLAYER
 10
4164.1815235008
 20
4010.5286677568
  0
VERTEX
  8
GSLAYER
 10
4162.5839314656
 20
4021.7119566822
  0
VERTEX
  8
GSLAYER
 10
4160.9863394304
 20
4036.0904710149
  0
VERTEX
  8
GSLAYER
 10
4160.9863394304
 20
4050.4689853476
  0
VERTEX
  8
GSLAYER
 10
4160.9863394304
 20
4063.2498869767
  0
VERTEX
  8
GSLAYER
 10
4162.5839314656
 20
4074.4331759021
  0
VERTEX
  8
GSLAYER
 10
4162.5839314656
 20
4084.0188521239
  0
VERTEX
  8
GSLAYER
 10
4159.3887473952
 20
4163.8994873056
  0
VERTEX
  8
GSLAYER
 10
4157.79115536
 20
4176.6803889346
  0
VERTEX
  8
GSLAYER
 10
4157.79115536
 20
4181.4732270455
  0
VERTEX
  8
GSLAYER
 10
4157.79115536
 20
4192.656515971
  0
VERTEX
  8
GSLAYER
 10
4157.79115536
 20
4205.4374176
  0
VERTEX
  8
GSLAYER
 10
4167.3767075712
 20
4306.0870179289
  0
VERTEX
  8
GSLAYER
 10
4167.3767075712
 20
4310.8798560398
  0
VERTEX
  8
GSLAYER
 10
4167.3767075712
 20
4318.867919558
  0
VERTEX
  8
GSLAYER
 10
4167.3767075712
 20
4330.0512084834
  0
VERTEX
  8
GSLAYER
 10
4167.3767075712
 20
4334.8440465943
  0
VERTEX
  8
GSLAYER
 10
4170.5718916416
 20
4346.0273355198
  0
VERTEX
  8
GSLAYER
 10
4173.767075712
 20
4358.8082371488
  0
VERTEX
  8
GSLAYER
 10
4184.9502199583
 20
4443.4817104414
  0
VERTEX
  8
GSLAYER
 10
4181.7550358879
 20
4453.0673866632
  0
VERTEX
  8
GSLAYER
 10
4181.7550358879
 20
4457.8602247741
  0
VERTEX
  8
GSLAYER
 10
4181.7550358879
 20
4462.653062885
  0
VERTEX
  8
GSLAYER
 10
4181.7550358879
 20
4472.2387391068
  0
VERTEX
  8
GSLAYER
 10
4181.7550358879
 20
4477.0315772177
  0
VERTEX
  8
GSLAYER
 10
4184.9502199583
 20
4489.8124788468
  0
VERTEX
  8
GSLAYER
 10
4186.5478119935
 20
4598.4501426939
  0
VERTEX
  8
GSLAYER
 10
4186.5478119935
 20
4606.438206212
  0
VERTEX
  8
GSLAYER
 10
4186.5478119935
 20
4617.6214951375
  0
VERTEX
  8
GSLAYER
 10
4186.5478119935
 20
4622.4143332484
  0
VERTEX
  8
GSLAYER
 10
4212.1092845566
 20
4687.9164540973
  0
VERTEX
  8
GSLAYER
 10
4216.9020606622
 20
4692.7092922082
  0
VERTEX
  8
GSLAYER
 10
4224.8900208382
 20
4697.5021303191
  0
VERTEX
  8
GSLAYER
 10
4228.0852049085
 20
4700.6973557264
  0
VERTEX
  8
GSLAYER
 10
4237.6707571197
 20
4708.6854192446
  0
VERTEX
  8
GSLAYER
 10
4240.8659411901
 20
4713.4782573555
  0
VERTEX
  8
GSLAYER
 10
4274.4153739292
 20
4748.6257368354
  0
VERTEX
  8
GSLAYER
 10
4276.0129659643
 20
4755.0161876499
  0
VERTEX
  8
GSLAYER
 10
4277.6105579995
 20
4759.8090257608
  0
VERTEX
  8
GSLAYER
 10
4282.4033341051
 20
4774.1875400935
  0
VERTEX
  8
GSLAYER
 10
4282.4033341051
 20
4778.9803782044
  0
VERTEX
  8
GSLAYER
 10
4285.5985181755
 20
4788.5660544262
  0
VERTEX
  8
GSLAYER
 10
4285.5985181755
 20
4793.3588925371
  0
VERTEX
  8
GSLAYER
 10
4276.0129659643
 20
4854.0681752752
  0
VERTEX
  8
GSLAYER
 10
4276.0129659643
 20
4858.8610133861
  0
VERTEX
  8
GSLAYER
 10
4277.6105579995
 20
4866.8490769043
  0
VERTEX
  8
GSLAYER
 10
4280.8057420699
 20
4878.0323658297
  0
VERTEX
  8
GSLAYER
 10
4282.4033341051
 20
4882.8252039406
  0
VERTEX
  8
GSLAYER
 10
4303.1720305626
 20
4961.1082264186
  0
VERTEX
  8
GSLAYER
 10
4303.1720305626
 20
4965.9010645295
  0
VERTEX
  8
GSLAYER
 10
4304.7696225978
 20
4975.4867407513
  0
VERTEX
  8
GSLAYER
 10
4307.9648066682
 20
4983.4748042695
  0
VERTEX
  8
GSLAYER
 10
4311.1599907386
 20
4994.6580931949
  0
VERTEX
  8
GSLAYER
 10
4312.7575827738
 20
4999.4509313058
  0
VERTEX
  8
GSLAYER
 10
4317.5503588794
 20
5010.6342202313
  0
VERTEX
  8
GSLAYER
 10
4320.7455429498
 20
5021.8175091567
  0
VERTEX
  8
GSLAYER
 10
4315.9527668442
 20
5104.8933697456
  0
VERTEX
  8
GSLAYER
 10
4312.7575827738
 20
5112.8814332638
  0
VERTEX
  8
GSLAYER
 10
4309.5623987034
 20
5127.2599475965
  0
VERTEX
  8
GSLAYER
 10
4309.5623987034
 20
5132.0527857074
  0
VERTEX
  8
GSLAYER
 10
4309.5623987034
 20
5141.6384619292
  0
VERTEX
  8
GSLAYER
 10
4314.355174809
 20
5213.5310335927
  0
VERTEX
  8
GSLAYER
 10
4314.355174809
 20
5218.3238717036
  0
VERTEX
  8
GSLAYER
 10
4312.7575827738
 20
5223.1167098145
  0
VERTEX
  8
GSLAYER
 10
4311.1599907386
 20
5239.0928368509
  0
VERTEX
  8
GSLAYER
 10
4307.9648066682
 20
5259.8618019981
  0
VERTEX
  8
GSLAYER
 10
4307.9648066682
 20
5264.654640109
  0
VERTEX
  8
GSLAYER
 10
4280.8057420699
 20
5328.5591482543
  0
VERTEX
  8
GSLAYER
 10
4274.4153739292
 20
5330.156760958
  0
VERTEX
  8
GSLAYER
 10
4268.0250057884
 20
5331.7543736616
  0
VERTEX
  8
GSLAYER
 10
4236.0731650845
 20
5374.8899166597
  0
VERTEX
  8
GSLAYER
 10
4234.4755730493
 20
5382.8779801779
  0
VERTEX
  8
GSLAYER
 10
4232.8779810141
 20
5387.6708182888
  0
VERTEX
  8
GSLAYER
 10
4232.8779810141
 20
5402.0493326215
  0
VERTEX
  8
GSLAYER
 10
4240.8659411901
 20
5451.5753264341
  0
VERTEX
  8
GSLAYER
 10
4245.6587172957
 20
5457.9657772486
  0
VERTEX
  8
GSLAYER
 10
4247.2563093309
 20
5462.7586153595
  0
VERTEX
  8
GSLAYER
 10
4277.6105579995
 20
5507.4917710613
  0
VERTEX
  8
GSLAYER
 10
4282.4033341051
 20
5512.2846091722
  0
VERTEX
  8
GSLAYER
 10
4287.1961102107
 20
5517.0774472831
  0
VERTEX
  8
GSLAYER
 10
4290.3912942811
 20
5521.870285394
  0
VERTEX
  8
GSLAYER
 10
4293.5864783515
 20
5525.0655108012
  0
VERTEX
  8
GSLAYER
 10
4296.7816624219
 20
5529.8583489121
  0
VERTEX
  8
GSLAYER
 10
4304.7696225978
 20
5537.8464124303
  0
VERTEX
  8
GSLAYER
 10
4307.9648066682
 20
5541.0416378376
  0
VERTEX
  8
GSLAYER
 10
4336.7214633017
 20
5574.5915046139
  0
VERTEX
  8
GSLAYER
 10
4339.9166473721
 20
5577.7867300211
  0
VERTEX
  8
GSLAYER
 10
4426.1866172725
 20
5646.4840762774
  0
VERTEX
  8
GSLAYER
 10
4429.3818013429
 20
5651.2769143883
  0
VERTEX
  8
GSLAYER
 10
4434.1745774485
 20
5654.4721397955
  0
VERTEX
  8
GSLAYER
 10
4475.7119703635
 20
5684.8267811646
  0
VERTEX
  8
GSLAYER
 10
4483.6999305395
 20
5689.6196192755
  0
VERTEX
  8
GSLAYER
 10
4490.0902986802
 20
5696.01007009
  0
VERTEX
  8
GSLAYER
 10
4493.2854827506
 20
5699.2052954973
  0
VERTEX
  8
GSLAYER
 10
4498.0782588562
 20
5703.9981336082
  0
VERTEX
  8
GSLAYER
 10
4509.2614031026
 20
5711.9861971263
  0
VERTEX
  8
GSLAYER
 10
4573.1650845103
 20
5748.7312893099
  0
VERTEX
  8
GSLAYER
 10
4577.9578606159
 20
5750.3289020135
  0
VERTEX
  8
GSLAYER
 10
4582.7506367215
 20
5753.5241274208
  0
VERTEX
  8
GSLAYER
 10
4587.543412827
 20
5756.7193528281
  0
VERTEX
  8
GSLAYER
 10
4592.3361889326
 20
5759.9145782353
  0
VERTEX
  8
GSLAYER
 10
4603.519333179
 20
5764.7074163462
  0
VERTEX
  8
GSLAYER
 10
4617.8976614957
 20
5772.6954798644
  0
VERTEX
  8
GSLAYER
 10
4672.2157906923
 20
5798.2572831225
  0
VERTEX
  8
GSLAYER
 10
4678.6061588331
 20
5799.8548958262
  0
VERTEX
  8
GSLAYER
 10
4681.8013429034
 20
5803.0501212334
  0
VERTEX
  8
GSLAYER
 10
4686.594119009
 20
5804.6477339371
  0
VERTEX
  8
GSLAYER
 10
4699.3748552906
 20
5809.440572048
  0
VERTEX
  8
GSLAYER
 10
4702.570039361
 20
5812.6357974552
  0
VERTEX
  8
GSLAYER
 10
4780.8520490854
 20
5852.5761150461
  0
VERTEX
  8
GSLAYER
 10
4784.0472331558
 20
5855.7713404533
  0
VERTEX
  8
GSLAYER
 10
4788.8400092614
 20
5858.9665658606
  0
VERTEX
  8
GSLAYER
 10
4795.2303774022
 20
5863.7594039715
  0
VERTEX
  8
GSLAYER
 10
4808.0111136837
 20
5871.7474674897
  0
VERTEX
  8
GSLAYER
 10
4857.5364667747
 20
5903.6997215624
  0
VERTEX
  8
GSLAYER
 10
4862.3292428803
 20
5906.8949469696
  0
VERTEX
  8
GSLAYER
 10
4868.7196110211
 20
5910.0901723769
  0
VERTEX
  8
GSLAYER
 10
4876.707571197
 20
5914.8830104878
  0
VERTEX
  8
GSLAYER
 10
4881.5003473026
 20
5918.0782358951
  0
VERTEX
  8
GSLAYER
 10
4886.2931234082
 20
5921.2734613023
  0
VERTEX
  8
GSLAYER
 10
4951.7943968511
 20
5951.6281026714
  0
VERTEX
  8
GSLAYER
 10
4956.5871729567
 20
5954.8233280786
  0
VERTEX
  8
GSLAYER
 10
4966.1727251679
 20
5958.0185534859
  0
VERTEX
  8
GSLAYER
 10
4972.5630933086
 20
5961.2137788932
  0
VERTEX
  8
GSLAYER
 10
5041.2595508219
 20
5977.1899059295
  0
SEQEND
  0
POLYLINE
  8
GSLAYER
 70
128
 66
1
  0
VERTEX
  8
GSLAYER
 10
1275.7351238713
 20
3933.8432579824
  0
VERTEX
  8
GSLAYER
 10
1278.9303079417
 20
3930.6480325751
  0
VERTEX
  8
GSLAYER
 10
1278.9303079417
 20
3925.8551944642
  0
VERTEX
  8
GSLAYER
 10
1323.6628849271
 20
3841.1817211716
  0
VERTEX
  8
GSLAYER
 10
1326.8580689975
 20
3834.7912703571
  0
VERTEX
  8
GSLAYER
 10
1330.0532530679
 20
3831.5960449498
  0
VERTEX
  8
GSLAYER
 10
1365.2002778421
 20
3793.2533400626
  0
VERTEX
  8
GSLAYER
 10
1369.9930539477
 20
3794.8509527662
  0
VERTEX
  8
GSLAYER
 10
1461.0557999537
 20
3764.4963113972
  0
VERTEX
  8
GSLAYER
 10
1616.0222273675
 20
3713.3727048809
  0
VERTEX
  8
GSLAYER
 10
1619.2174114379
 20
3710.1774794737
  0
VERTEX
  8
GSLAYER
 10
1624.0101875434
 20
3708.57986677
  0
VERTEX
  8
GSLAYER
 10
1633.5957397546
 20
3703.7870286591
  0
VERTEX
  8
GSLAYER
 10
1638.3885158602
 20
3702.1894159555
  0
VERTEX
  8
GSLAYER
 10
1649.5716601065
 20
3698.9941905482
  0
VERTEX
  8
GSLAYER
 10
1732.6464459366
 20
3646.2729713283
  0
VERTEX
  8
GSLAYER
 10
1734.2440379718
 20
3639.8825205138
  0
VERTEX
  8
GSLAYER
 10
1734.2440379718
 20
3635.0896824029
  0
VERTEX
  8
GSLAYER
 10
1737.4392220422
 20
3630.296844292
  0
VERTEX
  8
GSLAYER
 10
1812.5260476963
 20
3544.0257582958
  0
VERTEX
  8
GSLAYER
 10
1815.7212317666
 20
3539.2329201849
  0
VERTEX
  8
GSLAYER
 10
1818.916415837
 20
3536.0376947776
  0
VERTEX
  8
GSLAYER
 10
1822.1115999074
 20
3531.2448566667
  0
VERTEX
  8
GSLAYER
 10
1825.3067839778
 20
3528.0496312595
  0
VERTEX
  8
GSLAYER
 10
1831.6971521186
 20
3523.2567931486
  0
VERTEX
  8
GSLAYER
 10
1956.3093308637
 20
3419.4119674124
  0
VERTEX
  8
GSLAYER
 10
1959.504514934
 20
3416.2167420051
  0
VERTEX
  8
GSLAYER
 10
1962.6996990044
 20
3409.8262911906
  0
VERTEX
  8
GSLAYER
 10
1965.8948830748
 20
3406.6310657833
  0
VERTEX
  8
GSLAYER
 10
2056.9576290808
 20
3296.3957892326
  0
VERTEX
  8
GSLAYER
 10
2063.3479972216
 20
3286.8101130108
  0
VERTEX
  8
GSLAYER
 10
2066.543181292
 20
3282.0172748999
  0
VERTEX
  8
GSLAYER
 10
2069.7383653624
 20
3277.224436789
  0
VERTEX
  8
GSLAYER
 10
2074.531141468
 20
3274.0292113818
  0
VERTEX
  8
GSLAYER
 10
2077.7263255383
 20
3269.2363732709
  0
VERTEX
  8
GSLAYER
 10
2080.9215096087
 20
3264.44353516
  0
VERTEX
  8
GSLAYER
 10
2084.1166936791
 20
3259.6506970491
  0
VERTEX
  8
GSLAYER
 10
2092.1046538551
 20
3250.0650208273
  0
VERTEX
  8
GSLAYER
 10
2144.8251910165
 20
3151.013033202
  0
VERTEX
  8
GSLAYER
 10
2144.8251910165
 20
3146.2201950911
  0
VERTEX
  8
GSLAYER
 10
2144.8251910165
 20
3141.4273569802
  0
VERTEX
  8
GSLAYER
 10
2144.8251910165
 20
3136.6345188693
  0
VERTEX
  8
GSLAYER
 10
2144.8251910165
 20
3130.2440680547
  0
VERTEX
  8
GSLAYER
 10
2146.4227830517
 20
3125.4512299438
  0
VERTEX
  8
GSLAYER
 10
2202.3385042834
 20
3045.5705947622
  0
VERTEX
  8
GSLAYER
 10
2205.5336883538
 20
3042.3753693549
  0
VERTEX
  8
GSLAYER
 10
2207.131280389
 20
3034.3873058367
  0
VERTEX
  8
GSLAYER
 10
2210.3264644594
 20
3029.5944677258
  0
VERTEX
  8
GSLAYER
 10
2215.119240565
 20
3024.8016296149
  0
VERTEX
  8
GSLAYER
 10
2328.5482750637
 20
2976.8732485059
  0
VERTEX
  8
GSLAYER
 10
2334.9386432045
 20
2975.2756358023
  0
VERTEX
  8
GSLAYER
 10
2339.73141931
 20
2975.2756358023
  0
VERTEX
  8
GSLAYER
 10
2349.3169715212
 20
2975.2756358023
  0
VERTEX
  8
GSLAYER
 10
2505.8809909702
 20
2983.2636993205
  0
VERTEX
  8
GSLAYER
 10
2515.4665431813
 20
2983.2636993205
  0
VERTEX
  8
GSLAYER
 10
2520.2593192869
 20
2984.8613120241
  0
VERTEX
  8
GSLAYER
 10
2531.4424635332
 20
2989.654150135
  0
VERTEX
  8
GSLAYER
 10
2544.2231998148
 20
2992.8493755423
  0
VERTEX
  8
GSLAYER
 10
2566.5894883075
 20
2999.2398263568
  0
VERTEX
  8
GSLAYER
 10
2683.2137068766
 20
3012.0207279859
  0
VERTEX
  8
GSLAYER
 10
2689.6040750174
 20
3012.0207279859
  0
VERTEX
  8
GSLAYER
 10
2697.5920351934
 20
3013.6183406895
  0
VERTEX
  8
GSLAYER
 10
2708.7751794397
 20
3016.8135660968
  0
VERTEX
  8
GSLAYER
 10
2721.5559157212
 20
3021.6064042077
  0
VERTEX
  8
GSLAYER
 10
2734.3366520028
 20
3024.8016296149
  0
VERTEX
  8
GSLAYER
 10
2747.1173882843
 20
3027.9968550222
  0
VERTEX
  8
GSLAYER
 10
2775.8740449178
 20
3032.7896931331
  0
VERTEX
  8
GSLAYER
 10
2858.9488307479
 20
3043.9729820585
  0
VERTEX
  8
GSLAYER
 10
2865.3391988886
 20
3045.5705947622
  0
VERTEX
  8
GSLAYER
 10
2871.7295670294
 20
3045.5705947622
  0
VERTEX
  8
GSLAYER
 10
2876.522343135
 20
3045.5705947622
  0
VERTEX
  8
GSLAYER
 10
2881.3151192406
 20
3045.5705947622
  0
VERTEX
  8
GSLAYER
 10
2950.0115767539
 20
3027.9968550222
  0
VERTEX
  8
GSLAYER
 10
3049.0622829359
 20
2988.0565374314
  0
SEQEND
  0
POLYLINE
  8
GSLAYER
 70
128
 66
1
  0
VERTEX
  8
GSLAYER
 10
2277.4253299375
 20
5935.651975635
  0
VERTEX
  8
GSLAYER
 10
2350.9145635564
 20
5889.3212072297
  0
VERTEX
  8
GSLAYER
 10
2432.3917573513
 20
5820.6238609734
  0
VERTEX
  8
GSLAYER
 10
2435.5869414216
 20
5815.8310228625
  0
VERTEX
  8
GSLAYER
 10
2502.6858068998
 20
5739.1456130881
  0
VERTEX
  8
GSLAYER
 10
2505.8809909702
 20
5735.9503876808
  0
VERTEX
  8
GSLAYER
 10
2598.5413290114
 20
5649.6793016846
  0
VERTEX
  8
GSLAYER
 10
2601.7365130818
 20
5646.4840762774
  0
VERTEX
  8
GSLAYER
 10
2699.1896272285
 20
5565.0058283921
  0
VERTEX
  8
GSLAYER
 10
2702.3848112989
 20
5561.8106029848
  0
VERTEX
  8
GSLAYER
 10
2707.1775874045
 20
5558.6153775775
  0
VERTEX
  8
GSLAYER
 10
2711.9703635101
 20
5558.6153775775
  0
VERTEX
  8
GSLAYER
 10
2779.0692289882
 20
5531.4559616158
  0
VERTEX
  8
GSLAYER
 10
2783.8620050938
 20
5529.8583489121
  0
VERTEX
  8
GSLAYER
 10
2790.2523732346
 20
5529.8583489121
  0
VERTEX
  8
GSLAYER
 10
2886.1078953462
 20
5550.6273140594
  0
VERTEX
  8
GSLAYER
 10
2890.9006714517
 20
5552.224926763
  0
VERTEX
  8
GSLAYER
 10
2895.6934475573
 20
5553.8225394666
  0
VERTEX
  8
GSLAYER
 10
2900.4862236629
 20
5555.4201521703
  0
VERTEX
  8
GSLAYER
 10
2916.4621440148
 20
5563.4082156884
  0
VERTEX
  8
GSLAYER
 10
2924.4501041908
 20
5568.2010537993
  0
VERTEX
  8
GSLAYER
 10
2991.5489696689
 20
5619.3246603156
  0
VERTEX
  8
GSLAYER
 10
2994.7441537393
 20
5622.5198857229
  0
VERTEX
  8
GSLAYER
 10
2999.5369298449
 20
5625.7151111301
  0
VERTEX
  8
GSLAYER
 10
3002.7321139153
 20
5628.9103365374
  0
VERTEX
  8
GSLAYER
 10
3092.1972678861
 20
5660.8625906101
  0
VERTEX
  8
GSLAYER
 10
3096.9900439917
 20
5660.8625906101
  0
VERTEX
  8
GSLAYER
 10
3111.3683723084
 20
5660.8625906101
  0
VERTEX
  8
GSLAYER
 10
3128.9418846955
 20
5659.2649779064
  0
VERTEX
  8
GSLAYER
 10
3140.1250289419
 20
5657.6673652028
  0
VERTEX
  8
GSLAYER
 10
3202.4311183144
 20
5628.9103365374
  0
VERTEX
  8
GSLAYER
 10
3317.4577448484
 20
5596.9580824647
  0
VERTEX
  8
GSLAYER
 10
3397.337346608
 20
5595.3604697611
  0
VERTEX
  8
GSLAYER
 10
3509.1687890716
 20
5571.3962792066
  0
VERTEX
  8
GSLAYER
 10
3569.8772864089
 20
5576.1891173175
  0
VERTEX
  8
GSLAYER
 10
3574.6700625145
 20
5579.3843427248
  0
VERTEX
  8
GSLAYER
 10
3577.8652465849
 20
5582.579568132
  0
VERTEX
  8
GSLAYER
 10
3581.0604306553
 20
5585.7747935393
  0
VERTEX
  8
GSLAYER
 10
3635.3785598518
 20
5648.081688981
  0
VERTEX
  8
GSLAYER
 10
3635.3785598518
 20
5652.8745270919
  0
VERTEX
  8
GSLAYER
 10
3636.976151887
 20
5657.6673652028
  0
VERTEX
  8
GSLAYER
 10
3638.5737439222
 20
5662.4602033137
  0
VERTEX
  8
GSLAYER
 10
3683.3063209076
 20
5721.5718733481
  0
VERTEX
  8
GSLAYER
 10
3683.3063209076
 20
5726.364711459
  0
VERTEX
  8
GSLAYER
 10
3737.6244501042
 20
5774.293092568
  0
VERTEX
  8
GSLAYER
 10
3742.4172262098
 20
5777.4883179753
  0
VERTEX
  8
GSLAYER
 10
3777.564250984
 20
5791.866832308
  0
VERTEX
  8
GSLAYER
 10
3783.9546191248
 20
5795.0620577153
  0
VERTEX
  8
GSLAYER
 10
3868.62699699
 20
5841.3928261206
  0
VERTEX
  8
GSLAYER
 10
3870.2245890252
 20
5846.1856642315
  0
VERTEX
  8
GSLAYER
 10
3876.614957166
 20
5850.9785023424
  0
VERTEX
  8
GSLAYER
 10
3881.4077332716
 20
5852.5761150461
  0
VERTEX
  8
GSLAYER
 10
3892.5908775179
 20
5858.9665658606
  0
VERTEX
  8
GSLAYER
 10
4002.8247279463
 20
5886.1259818224
  0
VERTEX
  8
GSLAYER
 10
4148.2056031489
 20
5886.1259818224
  0
VERTEX
  8
GSLAYER
 10
4152.9983792545
 20
5886.1259818224
  0
VERTEX
  8
GSLAYER
 10
4167.3767075712
 20
5886.1259818224
  0
VERTEX
  8
GSLAYER
 10
4258.4394535772
 20
5906.8949469696
  0
VERTEX
  8
GSLAYER
 10
4263.2322296828
 20
5906.8949469696
  0
VERTEX
  8
GSLAYER
 10
4268.0250057884
 20
5908.4925596733
  0
VERTEX
  8
GSLAYER
 10
4274.4153739292
 20
5908.4925596733
  0
VERTEX
  8
GSLAYER
 10
4387.8444084279
 20
5898.9068834515
  0
VERTEX
  8
GSLAYER
 10
4392.6371845335
 20
5897.3092707478
  0
VERTEX
  8
GSLAYER
 10
4397.429960639
 20
5895.7116580442
  0
VERTEX
  8
GSLAYER
 10
4402.2227367446
 20
5895.7116580442
  0
VERTEX
  8
GSLAYER
 10
4407.0155128502
 20
5894.1140453406
  0
VERTEX
  8
GSLAYER
 10
4415.0034730262
 20
5894.1140453406
  0
VERTEX
  8
GSLAYER
 10
4491.6878907154
 20
5900.5044961551
  0
VERTEX
  8
GSLAYER
 10
4498.0782588562
 20
5900.5044961551
  0
VERTEX
  8
GSLAYER
 10
4502.8710349618
 20
5900.5044961551
  0
VERTEX
  8
GSLAYER
 10
4595.531373003
 20
5894.1140453406
  0
VERTEX
  8
GSLAYER
 10
4600.3241491086
 20
5894.1140453406
  0
VERTEX
  8
GSLAYER
 10
4608.3121092846
 20
5894.1140453406
  0
VERTEX
  8
GSLAYER
 10
4616.3000694605
 20
5892.5164326369
  0
VERTEX
  8
GSLAYER
 10
4697.7772632554
 20
5873.3450801933
  0
VERTEX
  8
GSLAYER
 10
4777.656865015
 20
5846.1856642315
  0
SEQEND
  0
POLYLINE
  8
GSLAYER
 70
129
 66
1
  0
VERTEX
  8
GSLAYER
 10
3533.2806420562
 20
3563.9951900384
  0
VERTEX
  8
GSLAYER
 10
3537.7738696551
 20
3563.9951900384
  0
VERTEX
  8
GSLAYER
 10
3537.7738696551
 20
3585.7876258239
  0
VERTEX
  8
GSLAYER
 10
3559.4911363835
 20
3585.7876258239
  0
VERTEX
  8
GSLAYER
 10
3559.4911363835
 20
3590.2809115529
  0
VERTEX
  8
GSLAYER
 10
3537.7738696551
 20
3590.2809115529
  0
VERTEX
  8
GSLAYER
 10
3537.7738696551
 20
3611.9235711474
  0
VERTEX
  8
GSLAYER
 10
3533.2806420562
 20
3611.9235711474
  0
VERTEX
  8
GSLAYER
 10
3533.2806420562
 20
3590.2809115529
  0
VERTEX
  8
GSLAYER
 10
3511.5633753277
 20
3590.2809115529
  0
VERTEX
  8
GSLAYER
 10
3511.5633753277
 20
3585.7876258239
  0
VERTEX
  8
GSLAYER
 10
3533.2806420562
 20
3585.7876258239
  0
VERTEX
  8
GSLAYER
 10
3533.2806420562
 20
3563.9951900384
  0
SEQEND
  0
POLYLINE
  8
GSLAYER
 70
129
 66
1
  0
VERTEX
  8
GSLAYER
 10
4132.907598046
 20
3949.8047099263
  0
VERTEX
  8
GSLAYER
 10
4137.400825645
 20
3949.8047099263
  0
VERTEX
  8
GSLAYER
 10
4137.400825645
 20
3971.5971457118
  0
VERTEX
  8
GSLAYER
 10
4159.1180923734
 20
3971.5971457118
  0
VERTEX
  8
GSLAYER
 10
4159.1180923734
 20
3976.0904314408
  0
VERTEX
  8
GSLAYER
 10
4137.400825645
 20
3976.0904314408
  0
VERTEX
  8
GSLAYER
 10
4137.400825645
 20
3997.7330910353
  0
VERTEX
  8
GSLAYER
 10
4132.907598046
 20
3997.7330910353
  0
VERTEX
  8
GSLAYER
 10
4132.907598046
 20
3976.0904314408
  0
VERTEX
  8
GSLAYER
 10
4111.1903313176
 20
3976.0904314408
  0
VERTEX
  8
GSLAYER
 10
4111.1903313176
 20
3971.5971457118
  0
VERTEX
  8
GSLAYER
 10
4132.907598046
 20
3971.5971457118
  0
VERTEX
  8
GSLAYER
 10
4132.907598046
 20
3949.8047099263
  0
SEQEND
  0
POLYLINE
  8
GSLAYER
 70
129
 66
1
  0
VERTEX
  8
GSLAYER
 10
5445.5586404138
 20
3558.2448781053
  0
VERTEX
  8
GSLAYER
 10
5450.0518680128
 20
3558.2448781053
  0
VERTEX
  8
GSLAYER
 10
5450.0518680128
 20
3580.0373138908
  0
VERTEX
  8
GSLAYER
 10
5471.7691347412
 20
3580.0373138908
  0
VERTEX
  8
GSLAYER
 10
5471.7691347412
 20
3584.5305996198
  0
VERTEX
  8
GSLAYER
 10
5450.0518680128
 20
3584.5305996198
  0
VERTEX
  8
GSLAYER
 10
5450.0518680128
 20
3606.1732592143
  0
VERTEX
  8
GSLAYER
 10
5445.5586404138
 20
3606.1732592143
  0
VERTEX
  8
GSLAYER
 10
5445.5586404138
 20
3584.5305996198
  0
VERTEX
  8
GSLAYER
 10
5423.8413736854
 20
3584.5305996198
  0
VERTEX
  8
GSLAYER
 10
5423.8413736854
 20
3580.0373138908
  0
VERTEX
  8
GSLAYER
 10
5445.5586404138
 20
3580.0373138908
  0
VERTEX
  8
GSLAYER
 10
5445.5586404138
 20
3558.2448781053
  0
SEQEND
  0
POLYLINE
  8
GSLAYER
 70
129
 66
1
  0
VERTEX
  8
GSLAYER
 10
5543.2766642861
 20
1999.6785318911
  0
VERTEX
  8
GSLAYER
 10
5547.7698918851
 20
1999.6785318911
  0
VERTEX
  8
GSLAYER
 10
5547.7698918851
 20
2021.4709676766
  0
VERTEX
  8
GSLAYER
 10
5569.4871586135
 20
2021.4709676766
  0
VERTEX
  8
GSLAYER
 10
5569.4871586135
 20
2025.9642534056
  0
VERTEX
  8
GSLAYER
 10
5547.7698918851
 20
2025.9642534056
  0
VERTEX
  8
GSLAYER
 10
5547.7698918851
 20
2047.6069130001
  0
VERTEX
  8
GSLAYER
 10
5543.2766642861
 20
2047.6069130001
  0
VERTEX
  8
GSLAYER
 10
5543.2766642861
 20
2025.9642534056
  0
VERTEX
  8
GSLAYER
 10
5521.5593975577
 20
2025.9642534056
  0
VERTEX
  8
GSLAYER
 10
5521.5593975577
 20
2021.4709676766
  0
VERTEX
  8
GSLAYER
 10
5543.2766642861
 20
2021.4709676766
  0
VERTEX
  8
GSLAYER
 10
5543.2766642861
 20
1999.6785318911
  0
SEQEND
  0
POLYLINE
  8
GSLAYER
 70
128
 66
1
  0
VERTEX
  8
GSLAYER
 10
1275.7351238713
 20
178.65459809201
  0
VERTEX
  8
GSLAYER
 10
7894.5589256772
 20
178.65459809201
  0
SEQEND
  0
POLYLINE
  8
GSLAYER
 70
128
 66
1
  0
VERTEX
  8
GSLAYER
 10
1275.7351238713
 20
5977.1899059295
  0
VERTEX
  8
GSLAYER
 10
7894.5589256772
 20
5977.1899059295
  0
SEQEND
  0
POLYLINE
  8
GSLAYER
 70
128
 66
1
  0
VERTEX
  8
GSLAYER
 10
1275.7351238713
 20
178.65459809201
  0
VERTEX
  8
GSLAYER
 10
1275.7351238713
 20
5977.1899059295
  0
SEQEND
  0
POLYLINE
  8
GSLAYER
 70
128
 66
1
  0
VERTEX
  8
GSLAYER
 10
7894.5589256772
 20
178.65459809201
  0
VERTEX
  8
GSLAYER
 10
7894.5589256772
 20
5977.1899059295
  0
SEQEND
  0
ENDSEC
  0
EOF
